» » »

Maroon 5 - Out Of Goodbyes Bass

Artists:  A B C D E F G H I J K L M N O P Q R S T U V W X Y Z # 

Out Of Goodbyes Bass

(ver. 1) Click to play this song!
Maroon 5
 Rating:
4/5 (4 votes)


 Out Of Goodbyes lessons Tabs too difficult? Try these video lessons and learn fast
 
                -----------------------------------------------------------------------------
                             Out of Goodbyes - Maroon 5
-----------------------------------------------------------------------------

This should be pretty accurate. The slide parts aren't very apparent, but they're there.

Tuning: EADG

    Part 1 -  0:12 "Tell me actions..."
G|------------------------------------------------------------------------|
D|------------------------------------------------------------------------|
A|------------------------------------------------------------------------| x2
E|-3--3----3--3----3--3----3--3----8--8----8--8----3--3----3--3-----------|

    Part 2 -  0:49 "On our way home..."
G|---------------------------------------------------------------------------|
D|---------------------------------------------------------------------------|
A|-----------------4--4----4--4----------------------------------------------|
E|-8--8----8--8--------------------3--3----3--3----3--3----3--3--------------|

   |--1:06---| slide up from G to C. Then pluck G and E on 'A' string
   |         | in time for repeat of Part 2.
G|-|---------|---------------------------------------------------------------|
D|-|---------|---------------------------------------------------------------|
A|-|-----10-7|---------------------------------------------------------------|
E|-|3/8------|---------------------------------------------------------------|


      1:26   |-same thing-|              |-same thing-------------------------|
G|-----------|------------|--------------|------------|-----------------------|
D|-----------|------------|--------------|-2/5-2---2--|-----------------------|
A|-----------|10/12--10-7-|--------------|-------5----|-----------------------|
E|-8--8----8-|------------|----3--3----3-|------------|-----------------------|


     1:35 "Never asked you..." - Repeat Part 1 x2
     2:12 "On our way home..." - Repeat Part 2 x2 without the slide sections

     2:49 ending
G|------------------------------------------------------------8\2------------|
D|---------------------------------------------------------8-----------------|
A|-------------------------------------------------3--3----------------------|
E|-8--8----8--8----3--3----3--3----8--8----8--8--------------------3---------|
            
Submit corrections



        Out Of Goodbyes lessons Hard to play? Try these video lessons and learn fast Out Of Goodbyes lessons
        
↑ Back to top | Tablatures and chords for acoustic guitar and electric guitar, ukulele, drums are parodies/interpretations of the original songs. You may use it for private study, scholarship, research or language learning purposes only