» » »

Marilyn Manson - The Gardener Bass

Artists:  A B C D E F G H I J K L M N O P Q R S T U V W X Y Z # 

The Gardener Bass

(ver. 1) Click to play this song!
Marilyn Manson
 Rating:
4/5 (4 votes)


 The Gardener lessons Tabs too difficult? Try these video lessons and learn fast
 
                Marilyn Manson-The Gardener

Dropped D Tuning


Intro and Verse:

---------------------------|---------------------------|
---------------------------|---------------------------|
---------------------------|---------------------------|
--0--0--12--0--3--5--6--0--|--0--0--12--0--3--5--6--0--|

                                                             X9

---------------------------|---------------------------|
---------------------------|---------------------------|
---------------------------|------------------5--3-----|
--0--0--12--0--3--5--6--0--|--0--0--12--0--0--------0--|



Play this one time only, once the initial bassline has been played the for the full 9 times!

---------------------------|---------------------------|
---------------------------|---------------------------|
---------------------------|---------------------------|
--0--0--12--0--3--5--6--0--|--0--0--12--0--3--5--6--0--|



Pre-Chorus:

---------------------------|---------------------------|
---------------------------|---------------------------|
---------------------------|---------------------------|
--0--0--12--0--3--5--6--0--|--0--0--12--0--3--5--6--0--|

                                                                   X2

---------------------------|---------------------------|
---------------------------|---------------------------|
---------------------------|------------------5--3-----|
--0--0--12--0--3--5--6--0--|--0--0--12--0--0--------0--|



Chorus:

|-----------------------------------------|
|-----------------------------------------|
|-------------3--4--x--5------x--3------x-|
|--3----3--x------------------------------|



|----------------------------------------------------|
|----------------------------------------------------|
|----------------3--4--x--5------5-------------------|
|-3--------3--x-----------------------0--0--0--0--3--|



|-----------------------------------------|
|-----------------------------------------|
|-------------3--4--x--5------x--3------x-|
|--3----3--x------------------------------|



|----------------------------------------------------|
|----------------------------------------------------|
|----------------3--4--x--5------5-------------------|
|-3--------3--x-----------------------0--0--0--0--0--|



Break & Verse 2:

---------------------------|---------------------------|
---------------------------|---------------------------|
---------------------------|---------------------------|
--0--0--12--0--3--5--6--0--|--0--0--12--0--3--5--6--0--|

                                                                   X6

---------------------------|---------------------------|
---------------------------|---------------------------|
---------------------------|------------------5--3-----|
--0--0--12--0--3--5--6--0--|--0--0--12--0--0--------0--|



Chorus:

|-----------------------------------------|
|-----------------------------------------|
|-------------3--4--x--5------x--3------x-|
|--3----3--x------------------------------|



|----------------------------------------------------|
|----------------------------------------------------|
|----------------3--4--x--5------5-------------------|
|-3--------3--x-----------------------0--0--0--0--3--|



|-----------------------------------------|
|-----------------------------------------|
|-------------3--4--x--5------x--3------x-|
|--3----3--x------------------------------|



|----------------------------------------------------|
|----------------------------------------------------|
|----------------3--4--x--5------5-------------------|
|-3--------3--x-----------------------0--0--0--0--0--|



Bridge:

G||-------------------|-------------------|-------------------|
D||-------------------|-------------------|-------------------|
A||-------------------|-------------------|-------------------|
D||--3----------------|--2----------------|--0----------------|

G||-------------------|-------------------|-------------------|
D||-------------------|-------------------|-------------------|
A||-------------------|--3----------------|-------------------|
D||--3----------------|-------------------|--0----------------|

G||-------------------|-------------------|-------------------|
D||-------------------|-------------------|-------------------|
A||-------------------|-------------------|-------------------|
D||--3----------------|--2----------------|--0----------------|

G||-------------------|-------------------|-------------------|
D||-------------------|-------------------|-------------------|
A||-------------------|-------------------|-------------------|
D||--3----------------|--5----------------|--0----------------|



Chorus & Outro:

|-----------------------------------------|
|-----------------------------------------|
|-------------3--4--x--5------x--3------x-|
|--3----3--x------------------------------|



|----------------------------------------------------|
|----------------------------------------------------|
|----------------3--4--x--5------5-------------------|
|-3--------3--x-----------------------0--0--0--0--3--|

                                                                  X2

|-----------------------------------------|
|-----------------------------------------|
|-------------3--4--x--5------x--3------x-|
|--3----3--x------------------------------|



|----------------------------------------------------|
|----------------------------------------------------|
|----------------3--4--x--5------5-------------------|
|-3--------3--x-----------------------0--0--0--0--0--|

Hope it was okay! I have a guitar pro version of the song so you can make out what's 
good and bad there too! I encourage you to rate and comment my tab, as I like to know what 
I can/could/should change!

Cheers! :)


Duration Legend
---------------
W - whole
H - half
Q - quarter
E - 8th
S - 16th
T - 32nd
X - 64th
. - note dotted
|-n-|  - n-tuplets


Tablature Legend
----------------
L - tied note
x - dead note
g - grace note
(n) - ghost note
> - accentuded note
NH - natural harmonic
AH - artificial harmonic
TH - tapped harmonic
SH - semi harmonic
PH - pitch harmonic
h - hammer on
p - pull off
b - bend
br - bendRelease
pb - preBend
pbr - preBendRelease
brb - bendReleaseBend
\n/ - tremolo bar dip
\n - tremolo bar dive
-/n - tremolo bar Release up
/n\ - tremolo bar inverted dip
/n - tremolo bar return
-\n - tremolo bar Release down
S - shift slide
s - legato slide
/ -  slide into from below or out of upwards
\ -  slide into from above or out of downwards
~ - vibrato
W - wide vibrato
tr - trill
TP - tremolo picking
T - tapping
S - slap
P - pop
< - fade in
^ - brush up
v - brush down
            
Submit corrections



        The Gardener lessons Hard to play? Try these video lessons and learn fast The Gardener lessons
        
↑ Back to top | Tablatures and chords for acoustic guitar and electric guitar, ukulele, drums are parodies/interpretations of the original songs. You may use it for private study, scholarship, research or language learning purposes only