» » »

Marianne Faithfull - Come And Stay With Me Bass

Artists:  A B C D E F G H I J K L M N O P Q R S T U V W X Y Z # 

Come And Stay With Me Bass

(ver. 1) Click to play this song!
Marianne Faithfull
 Rating:
4/5 (4 votes)
                Come Stay With Me
Written by Jackie De Shannon especially for Marianne Faithful.
This was her second single release in early 1965 reaching

Intro:                   (Play Both Parts x2)
G|----------------|---------------------|
D|---FIRST PART---|---------------------|
A|----NO BASS-----|---3-3------3-3------|
E|----------------|-------3-3-----3-3---|

Verse: (Play This x2 Letting the Bb ring)
G|-------------|--------------------|
D|-------------|--------------------|
A|------1------|---3-3-----3-3------|
E|-------------|-------3-3----3-3---|

Chorus:
G|-------------------------------------------------------------------------|
D|---3-3------5-5----------------------------------------------------------|
A|-------3-3------5-5---3-3-----3-3-------3---3----------3-3-----3-3-------|
E|--------------------------3-3-----3-3-----------3---1------3-3-----3-3---|

Repeat Verse & Chorus x4:

Solo:
G|--------------------------------------------------------------|
D|----------------------------------------------------------0-2-|
A|-1-1----1-1-----3-3-----3-3-----1-1-----1-1-----3-3----3-3----|
E|----1-1-----1-1-----3-3-----3-3-----1-1-----1-1----3-3--------|

Final Chorus:
G|----------------------------------------------------------------------|
D|---3-3------5-5-------------------------------------------------------|
A|-------3-3------5-5---3-3-----3-3-------3-----3--------------------3--|
E|--------------------------3-3-----3-3---------------3------1----------|

And Thats All There Is To It. A Great Simple Song
            
Submit corrections

↑ Back to top | Tablatures and chords for acoustic guitar and electric guitar, ukulele, drums are parodies/interpretations of the original songs. You may use it for private study, scholarship, research or language learning purposes only