» » »

Manic Street Preachers - Motorcycle Emptiness Bass

Artists:  A B C D E F G H I J K L M N O P Q R S T U V W X Y Z # 

Motorcycle Emptiness Bass

(ver. 2) Click to play this song!
Manic Street Preachers
 Rating:
4/5 (4 votes)


 Motorcycle Emptiness lessons Tabs too difficult? Try these video lessons and learn fast
 
                MANIC STREET PREACHERS MOTORCYCLE EMPTINESS

Riff A- VERSE AND CHORUS
   E                             B/D#              C#m                           A
G-|---------------------|---------------------|----------------------|---------------------|
D-|---------------------|---------------------|----------------------|---------------------|
A-|-7-7-7-7-7-7-7-7-7-7-|-6-6-6-6-6-6-6-6-6-6-|-4-4-4-4-4-4-4-4-4-4--|-0-0-0-0-0-0-0-0-0-0-|
E-|---------------------|---------------------|----------------------|---------------------|

Riff B –PRE-CHORUS
   C#m         E           B           A
G-|-----------|-----------|-----------|------------|-----------|-----------|---------------|
D-|-----------|-2----2----|-----------|------------|-----------|-----------|---------------|
A-|-4----4----|-----------|-2----2----|-0----0-----|-0----0----|-0----0----|-------0-0-0-0-|
E-|-----------|-----------|-----------|------------|-----------|-----------|---------------|


Riff C- MID SECTION                              Riff D
   A             B                        C             D
G-|-------------|-------------|        G-|-------------|-----------------|
D-|-------------|-------------|        D-|-------------|-----------------|
A-|-------------|-------------|X 2     A-|-------------|-----------------|X 2
E-|-5---5---5-5-|-7---7---7-7-|        E-|-8---8---8-8-|-10---10---10-10-|
   D
G-|---------|---------|
D-|---------|---------|
A-|---------|---------|
E-|-10------|(10)-----|

Riff D -SOLO
   E                 G                      A
G-|-----------------|-------------------------|-------------------------|-----------------|
D-|-----------------|-------------------------|-------------------------|-----------------|
A-|-7-7-7-7-7-7-7-7-|-10-10-10-10-10-10-10-10-|-12-12-12-12-12-12-12-12-|-7-7-7-7-7-7-7-7-|
E-|-----------------|-------------------------|-------------------------|-----------------|
   E                  G                         A              
G-|-----------------|-------------------------|-------------------------|----------|
D-|-----------------|-------------------------|-------------------------|----------|
A-|-7-7-7-7-7-7-7-7-|-10-10-10-10-10-10-10-10-|-12-12-12-12-12-12-12-12-|-0--------|
E-|-----------------|-------------------------|-------------------------|----------|

SONG ORDER
RIFF A x 2  INTRO 
RIFF A x 4  VERSE 1
RIFF B x 1  PRE-CHORUS
RIFF A x 2  CHORUS
RIFF A x 4  VERSE 2
RIFF B x 1  PRE-CHORUS
RIFF A x 2  CHORUS 2
RIFF C x 3  MID SECTION
RIFF A x 2  CHORUS 3
RIFF D x 1  SOLO
RIFF A x 4  VERSE 3 (1st & 3rd single notes)
RIFF B x 1  PRE-CHORUS
RIFF A x 4  CHORUS 4
RIFF A x 4  OUTRO
            
Submit corrections



        Motorcycle Emptiness lessons Hard to play? Try these video lessons and learn fast Motorcycle Emptiness lessons
        
↑ Back to top | Tablatures and chords for acoustic guitar and electric guitar, ukulele, drums are parodies/interpretations of the original songs. You may use it for private study, scholarship, research or language learning purposes only