» » »

Mando Diao - Song For Aberdeen Bass

Artists:  A B C D E F G H I J K L M N O P Q R S T U V W X Y Z # 

Song For Aberdeen Bass

(ver. 1) Click to play this song!
Mando Diao
 Rating:
4/5 (4 votes)


 Song For Aberdeen lessons Tabs too difficult? Try these video lessons and learn fast
 
                Song Title:Song For Aberdeen
Band:Mando Diao
Album:Ode To Ochrasy
Tuning:Standard

The Verse and the Chorus is played the same way

Intro

G|-9---9---9-----9|-------9/13-----|----------------|--------/8---6-4|
D|-----------9-11-|---9-11------119|-6---6---6-----6|-------6--------|
A|----------------|----------------|-----------6-9--|---6-9----------|
E|----------------|----------------|----------------|----------------|

|-6---6---6-----6|-------6-8---6--|-4---4---4-----4|-------4/8---6-4|
|-----------6-9--|---6-9----------|-----------4-6--|---4-6----------|
|----------------|----------------|----------------|----------------|
|----------------|----------------|----------------|----------------|

|-2---2---2-----2|-------2/6---4-2|-4---4---4-6---8|---4---6---4----|
|-----------2-4--|---2-4----------|----------------|-------------6-4|
|----------------|----------------|----------------|----------------|
|----------------|----------------|----------------|----------------|

|----------------|----------------|-4---4---4-----4|-------4-6-4----|
|-2---2---2-----2|-------2-------2|-----------4-6--|---4-6-------6-4|
|-----------2-4--|---2-4-----2-4--|----------------|----------------|
|----------------|----------------|----------------|----------------|

Verse

"...alcoholic artist with..."         
|----------------|----------------|----------------|----------------|
|-2---2---2-----2|-------2-------2|-6---6---6-----6|-------6-------6|
|-----------2-4--|---2-4-----2-4--|-----------6-9--|---6-9-----6-9--|
|----------------|----------------|----------------|----------------|
"...never knew her real name..."
|-6---6---6-----6|-------6-------6|-4---4---4-----4|-------4-------4|
|-----------6-9--|---6-9-----6-9--|-----------4-6--|---4-6-----4-6--|
|----------------|----------------|----------------|----------------|
|----------------|----------------|----------------|----------------|
"...love her and I'm sorry..."
|----------------|----------------|-4---4---4-----4|-------4-6-4----|
|-2---2---2-----2|-------2-------2|-----------4-6--|---4-6-------6-4|
|-----------2-4--|---2-4-----2-4--|----------------|----------------|
|----------------|----------------|----------------|----------------|
"...like a fairy from the..."
|-2---2---2-----2|-------2-------2|-4---4---4-----4|-------4--------|
|-----------2-4--|---2-4-----2-4--|-----------4-6--|---4-6-----6-4-6|
|----------------|----------------|----------------|----------------|
|----------------|----------------|----------------|----------------|
                                           "Ooh Yeah"
|----------------|----------------|-4---4---4-----4|-------4-6-4----|
|-2---2---2-----2|-------2-------2|-----------4-6--|---4-6-------6-4|
|-----------2-4--|---2-4-----2-4--|----------------|----------------|
|----------------|----------------|----------------|----------------|

"...woke up on you kitchen floor..."
|----------------|----------------|----------------|----------------|
|-2---2---2-----2|-------2-------2|-6---6---6-----6|-------6-------6|
|-----------2-4--|---2-4-----2-4--|-----------6-9--|---6-9-----6-9--|
|----------------|----------------|----------------|----------------|
"...flowers that I gave you..."
|-6---6---6-----6|-------6-------6|-4---4---4-----4|-------4-------4|
|-----------6-9--|---6-9-----6-9--|-----------4-6--|---4-6-----4-6--|
|----------------|----------------|----------------|----------------|
|----------------|----------------|----------------|----------------|
"...thought i must be crazy..."
|----------------|----------------|-4---4---4-----4|-------4-6-4----|
|-2---2---2-----2|-------2-------2|-----------4-6--|---4-6-------6-4|
|-----------2-4--|---2-4-----2-4--|----------------|----------------|
|----------------|----------------|----------------|----------------|
"...satan helped me up again..."
|-2---2---2-----2|-------2-------2|-4---4---4-----4|-------4--------|
|-----------2-4--|---2-4-----2-4--|-----------4-6--|---4-6-----6-4-6|
|----------------|----------------|----------------|----------------|
|----------------|----------------|----------------|----------------|

Chorus
                      "Ooh Yeah!"                      "Alright!"
|----------------|----------------|----------------|----------------|
|-2---2---2-----2|-------2-------2|-6---6---6-----6|-------6-------6|
|-----------2-4--|---2-4-----2-4--|-----------6-9--|---6-9-----6-9--|
|----------------|----------------|----------------|----------------|
                    "Oh Yeah!"
|-6---6---6-----6|-------6-------6|-4---4---4-----4|-------4-------4|
|-----------6-9--|---6-9-----6-9--|-----------4-6--|---4-6-----4-6--|
|----------------|----------------|----------------|----------------|
|----------------|----------------|----------------|----------------|
  
|----------------|----------------|-4---4---4-----4|-------4-6-4----|
|-2---2---2-----2|-------2-------2|-----------4-6--|---4-6-------6-4|
|-----------2-4--|---2-4-----2-4--|----------------|----------------|
|----------------|----------------|----------------|----------------|

|-2---2---2-----2|-------2-------2|-4---4---4-----4|-------4--------|
|-----------2-4--|---2-4-----2-4--|-----------4-6--|---4-6-----6-4-6|
|----------------|----------------|----------------|----------------|
|----------------|----------------|----------------|----------------|


Then play the Verse 2 just like the Chorus (x1)

Chorus 3x

This is one of the greatest song they've ever done!
            
Submit corrections



        Song For Aberdeen lessons Hard to play? Try these video lessons and learn fast Song For Aberdeen lessons
        
↑ Back to top | Tablatures and chords for acoustic guitar and electric guitar, ukulele, drums are parodies/interpretations of the original songs. You may use it for private study, scholarship, research or language learning purposes only