» » »

Mando Diao - Motown Blood Bass

Artists:  A B C D E F G H I J K L M N O P Q R S T U V W X Y Z # 

Motown Blood Bass

(ver. 1) Click to play this song!
Mando Diao
 Rating:
4/5 (4 votes)


 Motown Blood lessons Tabs too difficult? Try these video lessons and learn fast
 
                Hope you enjony,I think it's correct!

intro and verse                              "black as black as grey..."
G|------------------------------------------|---------------------------------|
D|---------------7------------------7-------|----77---------------------------|
A|------9999-7h9---9999---9999--7h9---9999--|-------77--99--------------------|
E|------------------------------------------|---------------------------------|

           "we don't care if you care for..."| "motown blood in our veins"
G|--------------|----------------------------|-------------------------------|
D|--7777--9999--|----------------------------|--77---------------------------|
A|--------------|--99-77------99-77----------|-----77-99---------------------|
E|--------------|--------77-99------77-99----|-------------------------------|
            
Submit corrections



        Motown Blood lessons Hard to play? Try these video lessons and learn fast Motown Blood lessons
        
↑ Back to top | Tablatures and chords for acoustic guitar and electric guitar, ukulele, drums are parodies/interpretations of the original songs. You may use it for private study, scholarship, research or language learning purposes only