» » »

Mamas And The Papas - Safe In My Garden Tabs

Artists:  A B C D E F G H I J K L M N O P Q R S T U V W X Y Z # 

Safe In My Garden Tabs

(ver. 1) Click to play this song!
Mamas And The Papas
 Rating:
4/5 (4 votes)

 Safe In My Garden lessons Tabs too difficult? Try these video lessons and learn fast
 
                Gtr I (E A D G B E) - 'Eric Hord - Electric Guitar w/ capo 5th fret'
Gtr II (E A D G B E) - 'John Phillips - Acoustic 12-string Guitar w/ capo 5th fret'


 Intro
  Q=84
  D       C        G         C         G
 4/4
  Gtr I (El. Gtr. w/ capo 5th fret)
  E E E E E Q  E   E E E E S S E E E   E E E E +E  E E E
|----------------|-------------0-----|-------------------||
|---3-------1----|---0---------1-----|---0---------0---0-||
|-----0--------0-|-----0---------0---|-----0---------0---||
|-4-----4-2------|-0-----0-0h2-----2-|-------0-(0)-------||
|----------------|-------------------|-------------------||
|----------------|-------------------|-3-----------------||


   1st - 5th Verses
    $
    G       C   G     C       Em        Am      G
    E E E E E E E E   E Q   E E E E E   E E E E E E E a E
||------------------|-0-----------0---|---0----------------|
||o---0---0-1---3---|---1-----0-------|-1-----3-1---0------|
||------0-----0---0-|-------0---0---0-|-----2-----2---2p0--|
||------------------|-----------------|--------------------|
||o-----------------|-----------------|--------------------|
||--3---------------|-----------------|--------------------|
|
|   Gtr II (Ac. 12-string Gtr. w/ capo 5th fret)
|   E E E E E E E E   E E E E E E E E   E E E E E E E   E
||--3-3-3-3-0-0-3-3-|-0-0-0-0-0-0-0-0-|-0-0-0-0-3-3-3---3--|
||o-0-0-0-0-1-1-0-0-|-1-1-1-1-0-0-0-0-|-1-1-1-1-0-0-0---0--|
||--0-0-0-0-0-0-0-0-|-0-0-0-0-0-0-0-0-|-2-2-2-2-0-0-0---0--|
||--0-0-0-0-2-2-0-0-|-2-2-2-2-2-2-2-2-|-2-2-2-2-0-0-0---0--|
||o-2-2-2-2-3-3-2-2-|-3-3-3-3-2-2-2-2-|-0-0-0-0-2-2-2---2--|
||--3-3-3-3-----3-3-|---------0-0-0-0-|---------3-3-3---3--|


  D       G                   C   G     Bm      Em
  E E E E E Q   S S   E E E E E E E E   E E E E E E E E
|-------------------|-----------------|-2---------0---3-|
|-----3-----3-------|-0-----0-1---3---|---3---0-----0---|
|-2-2---2-------2p0-|-----0-----0---0-|-----4-----------|
|-------------------|---0-------------|-----------------|
|-------------------|-----------------|-----------------|
|---------3---------|-----------------|---------0-------|
|
| E E E E E E E E     E E E E E E E E   E E E E E E E E
|-2-2-2-2-3-3-3-3---|-3-3-3-3-0-0-3-3-|-2-2-2-2-0-0-0-0-|
|-3-3-3-3-0-0-0-0---|-0-0-0-0-1-1-0-0-|-3-3-3-3-0-0-0-0-|
|-2-2-2-2-0-0-0-0---|-0-0-0-0-0-0-0-0-|-4-4-4-4-0-0-0-0-|
|-0-0-0-0-0-0-0-0---|-0-0-0-0-2-2-0-0-|-4-4-4-4-2-2-2-2-|
|---------2-2-2-2---|-2-2-2-2-3-3-2-2-|-2-2-2-2-2-2-2-2-|
|---------3-3-3-3---|-3-3-3-3-----3-3-|---------0-0-0-0-|


  Am            G     D                 G
  E E E E E Q   S S   E E E E E E E E   W
|-------------------|-----------------|-----------------|
|-1-0-1-----1-------|-3---3-----3-----|-----------------|
|-------2-------0h2-|---2---2-------0-|-----------------|
|-------------------|-------------0---|-----------------|
|---------0---------|-----------------|-----------------|
|-------------------|---------2-------|-----------------|
|
| E E E E E E E E     E E E E E E E E   E E E E E E E E
|-0-0-0-0-0-0-3-3---|-2-2-2-2-2-2-2-2-|-3-3-3-3-3-3-3-3-|
|-1-1-1-1-1-1-0-0---|-3-3-3-3-3-3-3-3-|-0-0-0-0-0-0-0-0-|
|-2-2-2-2-2-2-0-0---|-2-2-2-2-2-2-2-2-|-0-0-0-0-0-0-0-0-|
|-2-2-2-2-2-2-0-0---|-0-0-0-0-0-0-0-0-|-0-0-0-0-0-0-0-0-|
|-0-0-0-0-0-0-2-2---|-----------------|-2-2-2-2-2-2-2-2-|
|-------------3-3---|-----------------|-3-3-3-3-3-3-3-3-|


                             To Coda
  Am                Em
  W                 W
|-----------------|------------------|
|-----------------|------------------|
|-----------------|------------------|
|-----------------|------------------|
|-----------------|------------------|
|-----------------|------------------|
|
| E E E E E E E E   E E E E E E E E
|-0-0-0-0-0-0-0-0-|-0-0-0-0-0-0-0-0--|
|-1-1-1-1-1-1-1-1-|-0-0-0-0-0-0-0-0--|
|-2-2-2-2-2-2-2-2-|-0-0-0-0-0-0-0-0--|
|-2-2-2-2-2-2-2-2-|-2-2-2-2-2-2-2-2--|
|-0-0-0-0-0-0-0-0-|-2-2-2-2-2-2-2-2--|
|-----------------|-0-0-0-0-0-0-0-0--|


 1.,2.,3.
  D
  H       E E E E   S S Q   E +E  Q.        4x
|-----------0-----|-0h2-0---------0---------||
|---------------3-|---------3-(3)----------o||
|-------------2---|-------------------------||
|-----------------|-------------------------||
|-----------------|------------------------o||
|-----------------|-------------------------||
|
| E E E E E E E E   E   E E E  E  E  E E    4x
|-2-2-2-2-2-2-2-2-|-2---2-2-2--2--2--2-2----||
|-3-3-3-3-3-3-3-3-|-3---3-3-3--3--3--3-3---o||
|-2-2-2-2-2-2-2-2-|-2---2-2-2--2--2--2-2----||
|-0-0-0-0-0-0-0-0-|-0---0-0-0--0--0--0-0----||
|-----------------|------------------------o||
|-----------------|-------------------------||


  4.
      D.S. al Coda &
  D                   D
  Gtr II
  E E E E E E E E     E E E E E E E E
|-2-2-2-2-2-2-2-2--||-2-2-2-2-2-2-2-2-|
|-3-3-3-3-3-3-3-3--||-3-3-3-3-3-3-3-3-|
|-2-2-2-2-2-2-2-2--||-2-2-2-2-2-2-2-2-|
|-0-0-0-0-0-0-0-0--||-0-0-0-0-0-0-0-0-|
|------------------||-----------------|
|------------------||-----------------|


                    Outro
                     G       C   G     C       Em
  E E E E E E E E    E E E E E E E E   E E E E E E E E
|-2-2-2-2-2-2-2-2-||-3-3-3-3-0-0-3-3-|-0-0-0-0-0-0-0-0---*|
|-3-3-3-3-3-3-3-3-||-0-0-0-0-1-1-0-0-|-1-1-1-1-0-0-0-0---*|
|-2-2-2-2-2-2-2-2-||-0-0-0-0-0-0-0-0-|-0-0-0-0-0-0-0-0---*|
|-0-0-0-0-0-0-0-0-||-0-0-0-0-2-2-0-0-|-2-2-2-2-2-2-2-2---*|
|-----------------||-2-2-2-2-3-3-2-2-|-3-3-3-3-2-2-2-2---*|
|-----------------||-3-3-3-3-----3-3-|---------0-0-0-0---*|
            
Submit corrections


        Safe In My Garden lessons Hard to play? Try these video lessons and learn fast Safe In My Garden lessons
        
↑ Back to top | Tablatures and chords for acoustic guitar and electric guitar, ukulele, drums are parodies/interpretations of the original songs. You may use it for private study, scholarship, research or language learning purposes only