» » »

Mamas And The Papas - Monday Monday Tabs

Artists:  A B C D E F G H I J K L M N O P Q R S T U V W X Y Z # 

Monday Monday Tabs

(ver. 2) Click to play this song!
Mamas And The Papas
 Rating:
4/5 (4 votes)

 Monday Monday lessons Tabs too difficult? Try these video lessons and learn fast
 
                Gtr I (E A D G B E) - 'John Phillips - Acoustic Guitar '
Gtr II (E A D G B E) - 'P.F. Sloan - Electric Guitar '


 Intro
  Q=114
  N.C.                   F#         B/F#
 4/4
  Gtr I (Ac. Gtr.)
  Wx3          H    Q  E E   Q  E E E E E E
|------------|-----------2-|-2--2-2---------|
|------------|-----------2-|-2--2-2-4-4-4-4-|
|------------|-----------3-|-3--3-3-4-4-4-4-|
|------------|-----------4-|-4--4-4-4-4-4-4-|
|------------|-----------4-|-4--4-4-2-2-2-2-|
|------------|-----------2-|-2--2-2-2-2-2-2-|


                     Chorus
  F# B/F#    F#       F#     B/F#
  Q  E E +E  E E E    Q  E E E E E E
|-2----------2-2-2-||-2--2-2---------|
|-2--4-4-(4)-2-2-2-||-2--2-2-4-4-4-4-|
|-3--4-4-(4)-3-3-3-||-3--3-3-4-4-4-4-|
|-4--4-4-(4)-4-4-4-||-4--4-4-4-4-4-4-|
|-4--2-2-(2)-4-4-4-||-4--4-4-2-2-2-2-|
|-2--2-2-(2)-2-2-2-||-2--2-2-2-2-2-2-|


  F# B/F#    F#             B/F#      F# B/F#    F#             B/F#
  Q  E E +E  E E E   Q  E E E E E E   Q  E E +E  E E E   Q  E E E E E E
|-2----------2-2-2-|-2--2-2---------|-2----------2-2-2-|-2--2-2---------|
|-2--4-4-(4)-2-2-2-|-2--2-2-4-4-4-4-|-2--4-4-(4)-2-2-2-|-2--2-2-4-4-4-4-|
|-3--4-4-(4)-3-3-3-|-3--3-3-4-4-4-4-|-3--4-4-(4)-3-3-3-|-3--3-3-4-4-4-4-|
|-4--4-4-(4)-4-4-4-|-4--4-4-4-4-4-4-|-4--4-4-(4)-4-4-4-|-4--4-4-4-4-4-4-|
|-4--2-2-(2)-4-4-4-|-4--4-4-2-2-2-2-|-4--2-2-(2)-4-4-4-|-4--4-4-2-2-2-2-|
|-2--2-2-(2)-2-2-2-|-2--2-2-2-2-2-2-|-2--2-2-(2)-2-2-2-|-2--2-2-2-2-2-2-|


  F# B/F#    F#      E                                   A
  Q  E E +E  E E E   Q  E E E E E E   Q  E E +E  E E E   Q  E E E E E E
|-2----------2-2-2-|-0--0-0-0-0-0-0-|-0--0-0-(0)-0-0-0-|-0--0-0-0-0-0-0-|
|-2--4-4-(4)-2-2-2-|-0--0-0-0-0-0-0-|-0--0-0-(0)-0-0-0-|-2--2-2-2-2-2-2-|
|-3--4-4-(4)-3-3-3-|-1--1-1-1-1-1-1-|-1--1-1-(1)-1-1-1-|-2--2-2-2-2-2-2-|
|-4--4-4-(4)-4-4-4-|-2--2-2-2-2-2-2-|-2--2-2-(2)-2-2-2-|-2--2-2-2-2-2-2-|
|-4--2-2-(2)-4-4-4-|-2--2-2-2-2-2-2-|-2--2-2-(2)-2-2-2-|-0--0-0-0-0-0-0-|
|-2--2-2-(2)-2-2-2-|-0--0-0-0-0-0-0-|-0--0-0-(0)-0-0-0-|----------------|


                  C#7                                 F#
  Q  E E Q  E E   Q  E E E E E E   Q  E E +E  E E E   Q  E E E E E E
|-0--0-0-0--0-0-|----------------|------------------|-2--2-2-2-2-2-2-|
|-2--2-2-2--2-2-|-2--2-2-2-2-2-2-|-2--2-2-(2)-2-2-2-|-2--2-2-2-2-2-2-|
|-2--2-2-2--2-2-|-4--4-4-4-4-4-4-|-4--4-4-(4)-4-4-4-|-3--3-3-3-3-3-3-|
|-2--2-2-2--2-2-|-3--3-3-3-3-3-3-|-3--3-3-(3)-3-3-3-|-4--4-4-4-4-4-4-|
|-0--0-0-0--0-0-|-4--4-4-4-4-4-4-|-4--4-4-(4)-4-4-4-|-4--4-4-4-4-4-4-|
|---------------|----------------|------------------|-2--2-2-2-2-2-2-|


                                                         Verse
  F#7sus4            F#                                   F#     B/F#
  Q  E E +E  E E E   Q  E E E E E E   Q  E E +E  E E E    Q  E E E E E E
|-2--2-2-(2)-2-2-2-|-2--2-2-2-2-2-2-|-2--2-2-(2)-2-2-2-||-2--2-2---------|
|-2--2-2-(2)-2-2-2-|-2--2-2-2-2-2-2-|-2--2-2-(2)-2-2-2-||-2--2-2-4-4-4-4-|
|-4--4-4-(4)-4-4-4-|-3--3-3-3-3-3-3-|-3--3-3-(3)-3-3-3-||-3--3-3-4-4-4-4-|
|-2--2-2-(2)-2-2-2-|-4--4-4-4-4-4-4-|-4--4-4-(4)-4-4-4-||-4--4-4-4-4-4-4-|
|-4--4-4-(4)-4-4-4-|-4--4-4-4-4-4-4-|-4--4-4-(4)-4-4-4-||-4--4-4-2-2-2-2-|
|-2--2-2-(2)-2-2-2-|-2--2-2-2-2-2-2-|-2--2-2-(2)-2-2-2-||-2--2-2-2-2-2-2-|


  F# B/F#    F#             B/F#      F#         F#             B/F#
  Q  E E +E  E E E   Q  E E E E E E   Q  E E +E  E E E   Q  E E E E E E
|-2----------2-2-2-|-2--2-2---------|-2----------2-2-2-|-2--2-2---------|
|-2--4-4-(4)-2-2-2-|-2--2-2-4-4-4-4-|-2--4-4-(4)-2-2-2-|-2--2-2-4-4-4-4-|
|-3--4-4-(4)-3-3-3-|-3--3-3-4-4-4-4-|-3--4-4-(4)-3-3-3-|-3--3-3-4-4-4-4-|
|-4--4-4-(4)-4-4-4-|-4--4-4-4-4-4-4-|-4--4-4-(4)-4-4-4-|-4--4-4-4-4-4-4-|
|-4--2-2-(2)-4-4-4-|-4--4-4-2-2-2-2-|-4--2-2-(2)-4-4-4-|-4--4-4-2-2-2-2-|
|-2--2-2-(2)-2-2-2-|-2--2-2-2-2-2-2-|-2--2-2-(2)-2-2-2-|-2--2-2-2-2-2-2-|


  F# B/F#    F#      E                                   A
  Q  E E +E  E E E   Q  E E E E E E   Q  E E +E  E E E   Q  E E E E E E
|-2----------2-2-2-|-0--0-0-0-0-0-0-|-0--0-0-(0)-0-0-0-|-0--0-0-0-0-0-0-|
|-2--4-4-(4)-2-2-2-|-0--0-0-0-0-0-0-|-0--0-0-(0)-0-0-0-|-2--2-2-2-2-2-2-|
|-3--4-4-(4)-3-3-3-|-1--1-1-1-1-1-1-|-1--1-1-(1)-1-1-1-|-2--2-2-2-2-2-2-|
|-4--4-4-(4)-4-4-4-|-2--2-2-2-2-2-2-|-2--2-2-(2)-2-2-2-|-2--2-2-2-2-2-2-|
|-4--2-2-(2)-4-4-4-|-2--2-2-2-2-2-2-|-2--2-2-(2)-2-2-2-|-0--0-0-0-0-0-0-|
|-2--2-2-(2)-2-2-2-|-0--0-0-0-0-0-0-|-0--0-0-(0)-0-0-0-|----------------|


                     C#7                                 F#
  Q  E E +E  E E E   Q  E E E E E E   Q  E E +E  E E E   Q  E E E E E E
|-0--0-0-(0)-0-0-0-|----------------|------------------|-2--2-2-2-2-2-2-|
|-2--2-2-(2)-2-2-2-|-2--2-2-2-2-2-2-|-2--2-2-(2)-2-2-2-|-2--2-2-2-2-2-2-|
|-2--2-2-(2)-2-2-2-|-4--4-4-4-4-4-4-|-4--4-4-(4)-4-4-4-|-3--3-3-3-3-3-3-|
|-2--2-2-(2)-2-2-2-|-3--3-3-3-3-3-3-|-3--3-3-(3)-3-3-3-|-4--4-4-4-4-4-4-|
|-0--0-0-(0)-0-0-0-|-4--4-4-4-4-4-4-|-4--4-4-(4)-4-4-4-|-4--4-4-4-4-4-4-|
|------------------|----------------|------------------|-2--2-2-2-2-2-2-|


                                                         Bridge
  F#7sus4            F#                                   G
  Q  E E +E  E E E   Q  E E E E E E   Q  E E +E  E E E    Q  E E E E E E
|-2--2-2-(2)-2-2-2-|-2--2-2-2-2-2-2-|-2--2-2-(2)-2-2-2-||-3--3-3-3-3-3-3--|
|-2--2-2-(2)-2-2-2-|-2--2-2-2-2-2-2-|-2--2-2-(2)-2-2-2-||-3--3-3-3-3-3-3--|
|-4--4-4-(4)-4-4-4-|-3--3-3-3-3-3-3-|-3--3-3-(3)-3-3-3-||-4--4-4-4-4-4-4--|
|-2--2-2-(2)-2-2-2-|-4--4-4-4-4-4-4-|-4--4-4-(4)-4-4-4-||-5--5-5-5-5-5-5--|
|-4--4-4-(4)-4-4-4-|-4--4-4-4-4-4-4-|-4--4-4-(4)-4-4-4-||-5--5-5-5-5-5-5--|
|-2--2-2-(2)-2-2-2-|-2--2-2-2-2-2-2-|-2--2-2-(2)-2-2-2-||-3--3-3-3-3-3-3--|
|
| Gtr II (El. Gtr.)
| W                  W                W                   Q  e E E e Q
|------------------|----------------|------------------||----3-----3------|
|------------------|----------------|------------------||----3-----3------|
|------------------|----------------|------------------||-----------------|
|------------------|----------------|------------------||-----------------|
|------------------|----------------|------------------||-----------------|
|------------------|----------------|------------------||-----------------|


                   E
  Q  E E E E E E   Q  E E E E E E   Q  E E E E E E
|-3--3-3-3-3-3-3-|-0--0-0-0-0-0-0-|-0--0-0-0-0-0-0-|
|-3--3-3-3-3-3-3-|-0--0-0-0-0-0-0-|-0--0-0-0-0-0-0-|
|-4--4-4-4-4-4-4-|-1--1-1-1-1-1-1-|-1--1-1-1-1-1-1-|
|-5--5-5-5-5-5-5-|-2--2-2-2-2-2-2-|-2--2-2-2-2-2-2-|
|-5--5-5-5-5-5-5-|-2--2-2-2-2-2-2-|-2--2-2-2-2-2-2-|
|-3--3-3-3-3-3-3-|-0--0-0-0-0-0-0-|-0--0-0-0-0-0-0-|
|
| Q  e E E e Q     Q  e E E e Q     Q  e E E e Q
|----3-----3-----|----0-----0-----|----0-----0-----|
|----3-----3-----|----0-----0-----|----0-----0-----|
|----------------|----------------|----------------|
|----------------|----------------|----------------|
|----------------|----------------|----------------|
|----------------|----------------|----------------|


  G                                 F#
  Q  E E E E E E   Q  E E E E E E   Q  E E E E E E
|-3--3-3-3-3-3-3-|-3--3-3-3-3-3-3-|-2--2-2-2-2-2-2-|
|-3--3-3-3-3-3-3-|-3--3-3-3-3-3-3-|-2--2-2-2-2-2-2-|
|-4--4-4-4-4-4-4-|-4--4-4-4-4-4-4-|-3--3-3-3-3-3-3-|
|-5--5-5-5-5-5-5-|-5--5-5-5-5-5-5-|-4--4-4-4-4-4-4-|
|-5--5-5-5-5-5-5-|-5--5-5-5-5-5-5-|-4--4-4-4-4-4-4-|
|-3--3-3-3-3-3-3-|-3--3-3-3-3-3-3-|-2--2-2-2-2-2-2-|
|
| Q  e E E e Q     Q  e E E e Q     Q  e E E e Q
|----3-----3-----|----3-----3-----|----2-----2-----|
|----3-----3-----|----3-----3-----|----2-----2-----|
|----------------|----------------|----------------|
|----------------|----------------|----------------|
|----------------|----------------|----------------|
|----------------|----------------|----------------|


                   Chorus
  Eb7               Ab     Db/Ab     Ab Db/Ab   Ab             Db/Ab
  Q  E E E E E E    Q  E E E E E E   Q  E E +E  E E E   Q  E E E E E E
|----------------||-4--4-4---------|-4----------4-4-4-|-4--4-4----------|
|-4--4-4-4-4-4-4-||-4--4-4-6-6-6-6-|-4--6-6-(6)-4-4-4-|-4--4-4-6-6-6-6--|
|-6--6-6-6-6-6-6-||-5--5-5-6-6-6-6-|-5--6-6-(6)-5-5-5-|-5--5-5-6-6-6-6--|
|-5--5-5-5-5-5-5-||-6--6-6-6-6-6-6-|-6--6-6-(6)-6-6-6-|-6--6-6-6-6-6-6--|
|-6--6-6-6-6-6-6-||-6--6-6-4-4-4-4-|-6--4-4-(4)-6-6-6-|-6--6-6-4-4-4-4--|
|----------------||-4--4-4-4-4-4-4-|-4--4-4-(4)-4-4-4-|-4--4-4-4-4-4-4--|
|
| Q  e E E e Q      W                W                  W
|----------------||----------------|------------------|-----------------|
|----4-----4-----||----------------|------------------|-----------------|
|----3-----3-----||----------------|------------------|-----------------|
|----------------||----------------|------------------|-----------------|
|----------------||----------------|------------------|-----------------|
|----------------||----------------|------------------|-----------------|


  Ab Db/Ab   Ab             Db/Ab     Ab Db/Ab   Ab      Gb
  Q  E E +E  E E E   Q  E E E E E E   Q  E E +E  E E E   Q  E E E E E E
|-4----------4-4-4-|-4--4-4---------|-4----------4-4-4-|-2--2-2-2-2-2-2-|
|-4--6-6-(6)-4-4-4-|-4--4-4-6-6-6-6-|-4--6-6-(6)-4-4-4-|-2--2-2-2-2-2-2-|
|-5--6-6-(6)-5-5-5-|-5--5-5-6-6-6-6-|-5--6-6-(6)-5-5-5-|-3--3-3-3-3-3-3-|
|-6--6-6-(6)-6-6-6-|-6--6-6-6-6-6-6-|-6--6-6-(6)-6-6-6-|-4--4-4-4-4-4-4-|
|-6--4-4-(4)-6-6-6-|-6--6-6-4-4-4-4-|-6--4-4-(4)-6-6-6-|-4--4-4-4-4-4-4-|
|-4--4-4-(4)-4-4-4-|-4--4-4-4-4-4-4-|-4--4-4-(4)-4-4-4-|-2--2-2-2-2-2-2-|


                     Cb                                  Eb7
  Q  E E +E  E E E   Q  E E E E E E   Q  E E +E  E E E   Q  E E E E E E
|-2--2-2-(2)-2-2-2-|----------------|------------------|----------------|
|-2--2-2-(2)-2-2-2-|-4--4-4-4-4-4-4-|-4--4-4-(4)-4-4-4-|-4--4-4-4-4-4-4-|
|-3--3-3-(3)-3-3-3-|-4--4-4-4-4-4-4-|-4--4-4-(4)-4-4-4-|-6--6-6-6-6-6-6-|
|-4--4-4-(4)-4-4-4-|-4--4-4-4-4-4-4-|-4--4-4-(4)-4-4-4-|-5--5-5-5-5-5-5-|
|-4--4-4-(4)-4-4-4-|-2--2-2-2-2-2-2-|-2--2-2-(2)-2-2-2-|-6--6-6-6-6-6-6-|
|-2--2-2-(2)-2-2-2-|----------------|------------------|----------------|


                     Ab               Ab7sus4            Ab
  Q  E E +E  E E E   Q  E E E E E E   Q  E E +E  E E E   Q  E E E E E E
|------------------|-4--4-4-4-4-4-4-|-4--4-4-(4)-4-4-4-|-4--4-4-4-4-4-4-|
|-4--4-4-(4)-4-4-4-|-4--4-4-4-4-4-4-|-4--4-4-(4)-4-4-4-|-4--4-4-4-4-4-4-|
|-6--6-6-(6)-6-6-6-|-5--5-5-5-5-5-5-|-6--6-6-(6)-6-6-6-|-5--5-5-5-5-5-5-|
|-5--5-5-(5)-5-5-5-|-6--6-6-6-6-6-6-|-4--4-4-(4)-4-4-4-|-6--6-6-6-6-6-6-|
|-6--6-6-(6)-6-6-6-|-6--6-6-6-6-6-6-|-6--6-6-(6)-6-6-6-|-6--6-6-6-6-6-6-|
|------------------|-4--4-4-4-4-4-4-|-4--4-4-(4)-4-4-4-|-4--4-4-4-4-4-4-|


                     Bridge
                      A
  Q  E E +E  E E E    Q  E E E E E E   Q  E E +E  E E E
|-4--4-4-(4)-4-4-4-||-0--0-0-0-0-0-0-|-0--0-0-(0)-0-0-0-|
|-4--4-4-(4)-4-4-4-||-2--2-2-2-2-2-2-|-2--2-2-(2)-2-2-2-|
|-5--5-5-(5)-5-5-5-||-2--2-2-2-2-2-2-|-2--2-2-(2)-2-2-2-|
|-6--6-6-(6)-6-6-6-||-2--2-2-2-2-2-2-|-2--2-2-(2)-2-2-2-|
|-6--6-6-(6)-6-6-6-||-0--0-0-0-0-0-0-|-0--0-0-(0)-0-0-0-|
|-4--4-4-(4)-4-4-4-||----------------|------------------|
|
| Gtr II
| W                   Q  e E E e Q     Q  e E  E  e Q
|------------------||----5-----5-----|----5-------5-----|
|------------------||----5-----5-----|----5-------5-----|
|------------------||----------------|------------------|
|------------------||----------------|------------------|
|------------------||----------------|------------------|
|------------------||----------------|------------------|


  F#                                  A
  Q  E E E E E E   Q  E E +E  E E E   Q  E E E E E E
|-2--2-2-2-2-2-2-|-2--2-2-(2)-2-2-2-|-0--0-0-0-0-0-0-|
|-2--2-2-2-2-2-2-|-2--2-2-(2)-2-2-2-|-2--2-2-2-2-2-2-|
|-3--3-3-3-3-3-3-|-3--3-3-(3)-3-3-3-|-2--2-2-2-2-2-2-|
|-4--4-4-4-4-4-4-|-4--4-4-(4)-4-4-4-|-2--2-2-2-2-2-2-|
|-4--4-4-4-4-4-4-|-4--4-4-(4)-4-4-4-|-0--0-0-0-0-0-0-|
|-2--2-2-2-2-2-2-|-2--2-2-(2)-2-2-2-|----------------|
|
| Q  e E E e Q     Q  e E  E  e Q     Q  e E E e Q
|----2-----2-----|----2-------2-----|----5-----5-----|
|----2-----2-----|----2-------2-----|----5-----5-----|
|----------------|------------------|----------------|
|----------------|------------------|----------------|
|----------------|------------------|----------------|
|----------------|------------------|----------------|


                     D#7              G#
  Q  E E +E  E E E   Q  E E E E E E   E E E E E E E E
|-0--0-0-(0)-0-0-0-|----------------|-4-4-4-4-4-4-4-4-|
|-2--2-2-(2)-2-2-2-|-4--4-4-4-4-4-4-|-4-4-4-4-4-4-4-4-|
|-2--2-2-(2)-2-2-2-|-6--6-6-6-6-6-6-|-5-5-5-5-5-5-5-5-|
|-2--2-2-(2)-2-2-2-|-5--5-5-5-5-5-5-|-6-6-6-6-6-6-6-6-|
|-0--0-0-(0)-0-0-0-|-6--6-6-6-6-6-6-|-6-6-6-6-6-6-6-6-|
|------------------|----------------|-4-4-4-4-4-4-4-4-|
|
| Q  e E  E  e Q     Q  e E E e Q     Q   e E E e Q
|----5-------5-----|----3-----3-----|-----4-----4-----|
|----5-------5-----|----4-----4-----|-----4-----4-----|
|------------------|----------------|-----------------|
|------------------|----------------|-----------------|
|------------------|----------------|-----------------|
|------------------|----------------|-----------------|


                                              Outro
  F#                                           N.C.
  E E E E E E E E   q   q   H      W           W
|-2-2-2-2-2-2-2-2-|-2---2--------|----------||------|
|-2-2-2-2-2-2-2-2-|-2---2--------|----------||------|
|-3-3-3-3-3-3-3-3-|-3---3--------|----------||------|
|-4-4-4-4-4-4-4-4-|-4---4--------|----------||------|
|-4-4-4-4-4-4-4-4-|-4---4--------|----------||------|
|-2-2-2-2-2-2-2-2-|-2---2--------|----------||------|
|
| W                 E E E E H      W           W
|-----------------|-2---2--------|----------||------|
|-----------------|-2---2--------|----------||------|
|-----------------|-3---3--------|----------||------|
|-----------------|--------------|----------||------|
|-----------------|--------------|----------||------|
|-----------------|--------------|----------||------|


                                     Ab     Db/Ab
                                     Gtr I
  W          W          W            Q  E E E E E E
|----------|----------|----------||--4--4-4---------|
|----------|----------|----------||o-4--4-4-6-6-6-6-|
|----------|----------|----------||--5--5-5-6-6-6-6-|
|----------|----------|----------||--6--6-6-6-6-6-6-|
|----------|----------|----------||o-6--6-6-4-4-4-4-|
|----------|----------|----------||--4--4-4-4-4-4-4-|


  Ab Db/Ab   Ab             Db/Ab     Ab Db/Ab   Ab
  Q  E E +E  E E E   Q  E E E E E E   Q  E E +E  E E E  3x
|-4----------4-4-4-|-4--4-4---------|-4----------4-4-4--||
|-4--6-6-(6)-4-4-4-|-4--4-4-6-6-6-6-|-4--6-6-(6)-4-4-4-o||
|-5--6-6-(6)-5-5-5-|-5--5-5-6-6-6-6-|-5--6-6-(6)-5-5-5--||
|-6--6-6-(6)-6-6-6-|-6--6-6-6-6-6-6-|-6--6-6-(6)-6-6-6--||
|-6--4-4-(4)-6-6-6-|-6--6-6-4-4-4-4-|-6--4-4-(4)-6-6-6-o||
|-4--4-4-(4)-4-4-4-|-4--4-4-4-4-4-4-|-4--4-4-(4)-4-4-4--||
            
Submit corrections


        Monday Monday lessons Hard to play? Try these video lessons and learn fast Monday Monday lessons
        
↑ Back to top | Tablatures and chords for acoustic guitar and electric guitar, ukulele, drums are parodies/interpretations of the original songs. You may use it for private study, scholarship, research or language learning purposes only