» » »

Mamas And The Papas - I Call Your Name Tabs

Artists:  A B C D E F G H I J K L M N O P Q R S T U V W X Y Z # 

I Call Your Name Tabs

(ver. 1) Click to play this song!
Mamas And The Papas
 Rating:
4/5 (4 votes)

 I Call Your Name lessons Tabs too difficult? Try these video lessons and learn fast
 
                Gtr I (E A D G B E) - 'John Phillips - Electric Guitar'


 Intro                  Pre-Chorus
  Q=107(8=s8)
                         D
 4/4
  Gtr I
  W          W           Q  E E E E E E   Q  E E E E E E
|----------|----------||-2--2-2-2-2-2-2-|-2--2-2-2-2-2-2-|
|----------|----------||-3--3-3-3-3-3-3-|-3--3-3-3-3-3-3-|
|----------|----------||-2--2-2-2-2-2-2-|-2--2-2-2-2-2-2-|
|----------|----------||-0--0-0-0-0-0-0-|-0--0-0-0-0-0-0-|
|----------|----------||----------------|----------------|
|----------|----------||----------------|----------------|


  B7                                E7
  Q  E E E E E E   Q  E E E E E E   Q  E E E E E E   Q  E E E E E E
|-2--2-2-2-2-2-2-|-2--2-2-2-2-2-2-|-0--0-0-0-0-0-0-|-0--0-0-0-0-0-0--|
|-0--0-0-0-0-0-0-|-0--0-0-0-0-0-0-|-0--0-0-0-0-0-0-|-0--0-0-0-0-0-0--|
|-2--2-2-2-2-2-2-|-2--2-2-2-2-2-2-|-1--1-1-1-1-1-1-|-1--1-1-1-1-1-1--|
|-1--1-1-1-1-1-1-|-1--1-1-1-1-1-1-|-0--0-0-0-0-0-0-|-0--0-0-0-0-0-0--|
|-2--2-2-2-2-2-2-|-2--2-2-2-2-2-2-|-2--2-2-2-2-2-2-|-2--2-2-2-2-2-2--|
|----------------|----------------|-0--0-0-0-0-0-0-|-0--0-0-0-0-0-0--|


                                    Chorus
                                  $
  A7                                 D
  Q  E E E E E E   Q  E E E E E E    Q  E E E E E E   Q  E E E E E E
|-0--0-0-0-0-0-0-|-0--0-0-0-0-0-0-||-2--2-2-2-2-2-2-|-2--2-2-2-2-2-2--|
|-2--2-2-2-2-2-2-|-2--2-2-2-2-2-2-||-3--3-3-3-3-3-3-|-3--3-3-3-3-3-3--|
|-0--0-0-0-0-0-0-|-0--0-0-0-0-0-0-||-2--2-2-2-2-2-2-|-2--2-2-2-2-2-2--|
|-2--2-2-2-2-2-2-|-2--2-2-2-2-2-2-||-0--0-0-0-0-0-0-|-0--0-0-0-0-0-0--|
|-0--0-0-0-0-0-0-|-0--0-0-0-0-0-0-||----------------|-----------------|
|----------------|----------------||----------------|-----------------|


  B7                                E7               G
  Q  E E E E E E   Q  E E E E E E   Q  E E E E E E   Q  E E E E E E
|-2--2-2-2-2-2-2-|-2--2-2-2-2-2-2-|-0--0-0-0-0-0-0-|-3--3-3-3-3-3-3--|
|-0--0-0-0-0-0-0-|-0--0-0-0-0-0-0-|-0--0-0-0-0-0-0-|-0--0-0-0-0-0-0--|
|-2--2-2-2-2-2-2-|-2--2-2-2-2-2-2-|-1--1-1-1-1-1-1-|-0--0-0-0-0-0-0--|
|-1--1-1-1-1-1-1-|-1--1-1-1-1-1-1-|-0--0-0-0-0-0-0-|-0--0-0-0-0-0-0--|
|-2--2-2-2-2-2-2-|-2--2-2-2-2-2-2-|-2--2-2-2-2-2-2-|-2--2-2-2-2-2-2--|
|----------------|----------------|-0--0-0-0-0-0-0-|-3--3-3-3-3-3-3--|


                                 1st & 2nd Verses
                   straight Q=107
  D                               G
  Q  E E E E E E   E E Q  H       Q  E E E Q  E   Q  E E E Q  E
|-2--2-2-2-2-2-2-|-2-----------||-3--3-3-3-3--3-|-3--3-3-3-3--3--|
|-3--3-3-3-3-3-3-|-3-----------||-0--0-0-0-0--0-|-0--0-0-0-0--0--|
|-2--2-2-2-2-2-2-|-2-----------||-0--0-0-0-0--0-|-0--0-0-0-0--0--|
|-0--0-0-0-0-0-0-|-0-----------||-0--0-0-0-0--0-|-0--0-0-0-0--0--|
|----------------|-------------||-2--2-2-2-2--2-|-2--2-2-2-2--2--|
|----------------|-------------||-3--3-3-3-3--3-|-3--3-3-3-3--3--|


                                                         To Coda
  Bm                              E7
  Q  E E E Q  E   Q  E E E Q  E   Q  E E E Q  E   Q  E E E Q  E
|-2--2-2-2-2--2-|-2--2-2-2-2--2-|-0--0-0-0-0--0-|-0--0-0-0-0--0--|
|-3--3-3-3-3--3-|-3--3-3-3-3--3-|-0--0-0-0-0--0-|-0--0-0-0-0--0--|
|-4--4-4-4-4--4-|-4--4-4-4-4--4-|-1--1-1-1-1--1-|-1--1-1-1-1--1--|
|-4--4-4-4-4--4-|-4--4-4-4-4--4-|-0--0-0-0-0--0-|-0--0-0-0-0--0--|
|-2--2-2-2-2--2-|-2--2-2-2-2--2-|-2--2-2-2-2--2-|-2--2-2-2-2--2--|
|---------------|---------------|-0--0-0-0-0--0-|-0--0-0-0-0--0--|


                                Chorus
                  Q=107(8=s8)
  G                              D
  Q  E E E Q  E   E E Q  H       Q  E E E E E E   Q  E E E E E E
|-3--3-3-3-3--3-|-------------||-2--2-2-2-2-2-2-|-2--2-2-2-2-2-2--|
|-0--0-0-0-0--0-|-2-----------||-3--3-3-3-3-3-3-|-3--3-3-3-3-3-3--|
|-0--0-0-0-0--0-|-2-----------||-2--2-2-2-2-2-2-|-2--2-2-2-2-2-2--|
|-0--0-0-0-0--0-|-2-----------||-0--0-0-0-0-0-0-|-0--0-0-0-0-0-0--|
|-2--2-2-2-2--2-|-0-----------||----------------|-----------------|
|-3--3-3-3-3--3-|-------------||----------------|-----------------|


  B7                                E7               G
  Q  E E E E E E   Q  E E E E E E   Q  E E E E E E   Q  E E E E E E
|-2--2-2-2-2-2-2-|-2--2-2-2-2-2-2-|-0--0-0-0-0-0-0-|-3--3-3-3-3-3-3--|
|-0--0-0-0-0-0-0-|-0--0-0-0-0-0-0-|-0--0-0-0-0-0-0-|-0--0-0-0-0-0-0--|
|-2--2-2-2-2-2-2-|-2--2-2-2-2-2-2-|-1--1-1-1-1-1-1-|-0--0-0-0-0-0-0--|
|-1--1-1-1-1-1-1-|-1--1-1-1-1-1-1-|-0--0-0-0-0-0-0-|-0--0-0-0-0-0-0--|
|-2--2-2-2-2-2-2-|-2--2-2-2-2-2-2-|-2--2-2-2-2-2-2-|-2--2-2-2-2-2-2--|
|----------------|----------------|-0--0-0-0-0-0-0-|-3--3-3-3-3-3-3--|


                                   Q=107
                      D.S. al Coda &
  D                                   G               A
  Q  E E E E E E   Q  E E E E E E     Q  E E E Q  E   Q  E E E Q  E
|-2--2-2-2-2-2-2-|-2--2-2-2-2-2-2--||-3--3-3-3-3--3-|---------------|
|-3--3-3-3-3-3-3-|-3--3-3-3-3-3-3--||-0--0-0-0-0--0-|-2--2-2-2-2--2-|
|-2--2-2-2-2-2-2-|-2--2-2-2-2-2-2--||-0--0-0-0-0--0-|-2--2-2-2-2--2-|
|-0--0-0-0-0-0-0-|-0--0-0-0-0-0-0--||-0--0-0-0-0--0-|-2--2-2-2-2--2-|
|----------------|-----------------||-2--2-2-2-2--2-|-0--0-0-0-0--0-|
|----------------|-----------------||-3--3-3-3-3--3-|---------------|


                Chorus
                 D
  E E Q  H       Q  E E E Q  E   Q  E E E Q  E
|-------------||-2--2-2-2-2--2-|-2--2-2-2-2--2-|
|-2-----------||-3--3-3-3-3--3-|-3--3-3-3-3--3-|
|-2-----------||-2--2-2-2-2--2-|-2--2-2-2-2--2-|
|-2-----------||-0--0-0-0-0--0-|-0--0-0-0-0--0-|
|-0-----------||---------------|---------------|
|-------------||---------------|---------------|


  B7
  Q  E E E Q  E   Q  E E E Q  E
|-2--2-2-2-2--2-|-2--2-2-2-2--2---|
|-0--0-0-0-0--0-|-0--0-0-0-0--0---|
|-2--2-2-2-2--2-|-2--2-2-2-2--2---|
|-1--1-1-1-1--1-|-1--1-1-1-1--1---|
|-2--2-2-2-2--2-|-2--2-2-2-2--2---|
|---------------|-----------------|


                                                  Q=107(8=s8)
  E7              G               D               B7
  Q  E E E Q  E   Q  E E E Q  E   Q  E E E Q  E   E E Q  H
|-0--0-0-0-0--0-|-3--3-3-3-3--3-|-2--2-2-2-2--2-|-2-----------||
|-0--0-0-0-0--0-|-0--0-0-0-0--0-|-3--3-3-3-3--3-|-0-----------||
|-1--1-1-1-1--1-|-0--0-0-0-0--0-|-2--2-2-2-2--2-|-2-----------||
|-0--0-0-0-0--0-|-0--0-0-0-0--0-|-0--0-0-0-0--0-|-1-----------||
|-2--2-2-2-2--2-|-2--2-2-2-2--2-|---------------|-2-----------||
|-0--0-0-0-0--0-|-3--3-3-3-3--3-|---------------|-------------||


 Outro
  H.=H
  E7                G                 F                 D
  E E E E E E E E   E E E E E E E E   E E E E E E E E   W
|-0-0-0-0-0-0-0-0-|-3-3-3-3-3-3-3-3-|-1-1-1-1-1-1-1-1-|-2----*|
|-0-0-0-0-0-0-0-0-|-0-0-0-0-0-0-0-0-|-1-1-1-1-1-1-1-1-|-3----*|
|-1-1-1-1-1-1-1-1-|-0-0-0-0-0-0-0-0-|-2-2-2-2-2-2-2-2-|-2----*|
|-0-0-0-0-0-0-0-0-|-0-0-0-0-0-0-0-0-|-3-3-3-3-3-3-3-3-|-0----*|
|-2-2-2-2-2-2-2-2-|-2-2-2-2-2-2-2-2-|-3-3-3-3-3-3-3-3-|------*|
|-0-0-0-0-0-0-0-0-|-3-3-3-3-3-3-3-3-|-1-1-1-1-1-1-1-1-|------*|

            
Submit corrections


        I Call Your Name lessons Hard to play? Try these video lessons and learn fast I Call Your Name lessons
        
↑ Back to top | Tablatures and chords for acoustic guitar and electric guitar, ukulele, drums are parodies/interpretations of the original songs. You may use it for private study, scholarship, research or language learning purposes only