» » »

Mamas And The Papas - I Call Your Name Bass

Artists:  A B C D E F G H I J K L M N O P Q R S T U V W X Y Z # 

I Call Your Name Bass

(ver. 1) Click to play this song!
Mamas And The Papas
 Rating:
4/5 (4 votes)

 I Call Your Name lessons Tabs too difficult? Try these video lessons and learn fast
 
                Gtr I (E A D G) - 'Joe Osborn - Bass'


 Intro                  Pre-Chorus
  Q=107(8=s8)
 4/4
  Gtr I
  W          W           Q.   E Q.   E   Q.   E Q  Q
|----------|----------||---------------|--------------|
|----------|----------||---------------|--------------|
|----------|----------||-5----5------5-|-5----5----5--|
|----------|----------||--------5------|--------5-----|


  Q.   E Q.   E   Q.   E Q  Q    Q.   E Q.   E   Q.   E Q  Q
|---------------|--------------|---------------|---------------|
|---------------|--------------|-2----2------2-|-2----2----2---|
|-2----2------2-|-2----2----2--|--------2------|--------2------|
|--------2------|--------2-----|---------------|---------------|


                               Chorus
                             $
  Q.   E Q.   E   H    Q  Q     Q.   E Q.   E   Q.   E Q  Q
|-2----2------2-|-2-------2--||---------------|---------------|
|--------2------|------2-----||---------------|---------------|
|---------------|------------||-5----5------5-|-5----5----5---|
|---------------|------------||--------5------|--------5------|


  Q.   E Q.   E   Q.   E Q  Q    Q.   E Q.   E   Q.   E Q  Q
|---------------|--------------|---------------|---------------|
|---------------|--------------|-2----2------2-|-5----5----5---|
|-2----2------2-|-2----2----2--|--------2------|--------5------|
|--------2------|--------2-----|---------------|---------------|


                                1st & 2nd Verses
                  straight Q=107
  Q.   E Q.   E   E E Q  H       Q.   E E Q  E   Q.   E E Q  E
|---------------|-------------||---------------|----------------|
|---------------|-------------||-5----5--------|-5----5---------|
|-5----5------5-|-5-----------||--------5-5--5-|--------5-5--5--|
|--------5------|-------------||---------------|----------------|


                                                         To Coda
  Q.   E E Q  E   Q.   E E Q  E   Q.   E E Q  E   Q.   E E Q  E
|-4----4--------|-4----4--------|---------------|----------------|
|--------4-4--4-|--------4-4--4-|---------------|----------------|
|---------------|---------------|-7----7--------|-7----7---------|
|---------------|---------------|--------7-7--7-|--------7-7--7--|


                                  Chorus
                    Q=107(8=s8)
  E E E E E E E E   E E Q  H       Q.   E Q.   E   Q.   E Q  Q
|-----------------|-------------||---------------|---------------|
|-5-5-5-5-5-5-5-5-|-7-----------||---------------|---------------|
|-----------------|-------------||-5----5------5-|-5----5----5---|
|-----------------|-------------||--------5------|--------5------|


  Q.   E Q.   E   Q.   E Q  Q    Q.   E Q.   E   Q.   E Q  Q
|---------------|--------------|---------------|---------------|
|---------------|--------------|-2----2------2-|-5----5----5---|
|-2----2------2-|-2----2----2--|--------2------|--------5------|
|--------2------|--------2-----|---------------|---------------|


                               Q=107
                  D.S. al Coda &
  Q.   E Q.   E   Q.   E Q  Q     E E E E E E E E   E E E E E E E E
|---------------|--------------||-----------------|------------------|
|---------------|--------------||-5-5-5-5-5-5-5-5-|-7-7-7-7-7-7-7-7--|
|-5----5------5-|-5----5----5--||-----------------|------------------|
|--------5------|--------5-----||-----------------|------------------|


                Chorus
  E E Q  H       Q.   E E Q  E   Q.   E E Q  E
|-------------||---------------|---------------|
|-7-----------||---------------|---------------|
|-------------||-5----5--------|-5----5--------|
|-------------||--------5-5--5-|--------5-5--5-|


  Q.   E E Q  E   Q.   E E Q  E
|---------------|-----------------|
|---------------|-----------------|
|-2----2------2-|-2----2------2---|
|--------2-2----|--------2-2------|


                                                  Q=107(8=s8)
  Q.   E E Q  E   Q.   E E Q  E   Q.   E E Q  E   E E Q  H
|---------------|---------------|---------------|-------------||
|-2----2------2-|-5----5------5-|---------------|-------------||
|--------2-2----|--------5-5----|-5----5------5-|-------------||
|---------------|---------------|--------5-5----|-7-----------||


 Outro
  H.=H
  Q  Q  Q  Q    Q  Q  Q  Q    E E E E E E E E   W
|-------------|-------------|-----------------|------*|
|-2--2-----2--|-5--5-----5--|-3-3-3-3-3-3-3-3-|------*|
|-------2-----|-------5-----|-----------------|-5----*|
|-------------|-------------|-----------------|------*|
            
Submit corrections


        I Call Your Name lessons Hard to play? Try these video lessons and learn fast I Call Your Name lessons
        
↑ Back to top | Tablatures and chords for acoustic guitar and electric guitar, ukulele, drums are parodies/interpretations of the original songs. You may use it for private study, scholarship, research or language learning purposes only