» » »

Mamas And The Papas - Go Where You Wanna Go Tabs

Artists:  A B C D E F G H I J K L M N O P Q R S T U V W X Y Z # 

Go Where You Wanna Go Tabs

(ver. 1) Click to play this song!
Mamas And The Papas
 Rating:
4/5 (4 votes)

 Go Where You Wanna Go lessons Tabs too difficult? Try these video lessons and learn fast
 
                           G                    C                    D                   Em
      3 2 0 0 0 3          x 3 2 0 1 0          x x 0 2 3 2          0 2 2 0 0 0

          Am                    F                    A
      x 0 2 2 1 0          1 3 3 2 1 1          x 0 2 2 2 0



Gtr I (E A D G B E) - 'P.F. Sloan - Electric Guitar '
Gtr II (E A D G B E) - 'John Phillips - Acoustic Guitar '
Gtr III (E A D G B E) - 'Strings'


 Intro
  Q=104
                 G         C               G         C
 4/4
  Gtr II (Ac. Gtr.)
  W              E E S S E E S S +S  S E   E E S S E E S S +S  S E
                 | | | | | | | |  |  | |   | | | | | | | |  |  | |
                 / / / / / / / /  /  / /   / / / / / / / /  /  / /

  Gtr I (El. Gtr.)
  W              E E S S E E S S +S  S E   E E S S E E S S +S  S E
|--------------|---7-------8---------8---|---7-------8---------8---||
|--------------|-------8-------8-(8)-----|-------8-------8-(8)-----||
|--------------|-7---7---7---9---------9-|-7---7---7---9---------9-||
|--------------|-------------------------|-------------------------||
|--------------|-------------------------|-------------------------||
|--------------|-------------------------|-------------------------||
|
| Gtr III (Strings arr. for Gtr.)
| H    E E E E   W                         W
|--------------|-------------------------|-------------------------||
|--------------|-------------------------|-------------------------||
|--------------|-------------------------|-------------------------||
|--------------|-------------------------|-------------------------||
|------7-5-----|-------------------------|-------------------------||
|----------7-5-|-3-----------------------|-------------------------||


   Chorus
    G         C
    E E S S E E S S +S  S E
    | | | | | | | |  |  | |
    / / / / / / / /  /  / /

    E E S S E E S S +S  S E
||----7-------8---------8---|
||o-------8-------8-(8)-----|
||--7---7---7---9---------9-|
||--------------------------|
||o-------------------------|
||--------------------------|


  G         C               G         C
  E E S S E E S S +S  S E   E E S S E E S S +S  S E
  | | | | | | | |  |  | |   | | | | | | | |  |  | |
  / / / / / / / /  /  / /   / / / / / / / /  /  / /

  E E S S E E S S +S  S E   E E S S E E S S +S  S E
|---7-------8---------8---|---7-------8---------8----|
|-------8-------8-(8)-----|-------8-------8-(8)------|
|-7---7---7---9---------9-|-7---7---7---9---------9--|
|-------------------------|--------------------------|
|-------------------------|--------------------------|
|-------------------------|--------------------------|


  G         C               G         C               G         C
  E E S S E E S S +S  S E   E E S S E E S S +S  S E   E E S S E E S S +S  S E
  | | | | | | | |  |  | |   | | | | | | | |  |  | |   | | | | | | | |  |  | |
  / / / / / / / /  /  / /   / / / / / / / /  /  / /   / / / / / / / /  /  / /

  E E S S E E S S +S  S E   E E S S E E S S +S  S E   E E S S E E S S +S  S E
|---7-------8---------8---|---7-------8---------8---|---7-------8---------8---|
|-------8-------8-(8)-----|-------8-------8-(8)-----|-------8-------8-(8)-----|
|-7---7---7---9---------9-|-7---7---7---9---------9-|-7---7---7---9---------9-|
|-------------------------|-------------------------|-------------------------|
|-------------------------|-------------------------|-------------------------|
|-------------------------|-------------------------|-------------------------|


  G         C               G         C
  E E S S E E S S +S  S E   E E S S E E S S +S  S E
  | | | | | | | |  |  | |   | | | | | | | |  |  | |
  / / / / / / / /  /  / /   / / / / / / / /  /  / /

  E E S S E E S S +S  S E   E E S S E E S S +S  S E
|---7-------8---------8---|---7-------8---------8---|
|-------8-------8-(8)-----|-------8-------8-(8)-----|
|-7---7---7---9---------9-|-7---7---7---9---------9-|
|-------------------------|-------------------------|
|-------------------------|-------------------------|
|-------------------------|-------------------------|


  G         D
  E E S S E  E  S  S  +S   S  E
  | | | | |  |  |  |   |   |  |
  / / / / /  /  /  /   /   /  /

  E E S S E  E  S  S  +S   S  E
|---7-------10------------10----|
|-------8---------10-(10)-------|
|-7---7---7----11------------11-|
|-------------------------------|
|-------------------------------|
|-------------------------------|


  Em                        C
  E E S S E E S S +S  S E   E E S S E E S S +S  S E
  | | | | | | | |  |  | |   | | | | | | | |  |  | |
  / / / / / / / /  /  / /   / / / / / / / /  /  / /

  E E S S E E S S +S  S E   E E S S E E S S +S  S E
|---7-------7---------7---|---8-------8---------8---|
|-------8-------8-(8)-----|-------8-------8-(8)-----|
|-9---9---9---9---------9-|-9---9---9---9---------9-|
|-------------------------|-------------------------|
|-------------------------|-------------------------|
|-------------------------|-------------------------|


  Am
  E E S  S E E S  S  +S  S E
  | | |  | | | |  |   |  | |
  / / /  / / / /  /   /  / /

  E E S  S E E S  S  +S  S E
|---8--------8-----------8---|
|-------10-------10-(10)-----|
|-9---9----9---9-----------9-|
|----------------------------|
|----------------------------|
|----------------------------|


  D
   E  E  S  S  E  E  S  S  +S   S  E
   |  |  |  |  |  |  |  |   |   |  |
   /  /  /  /  /  /  /  /   /   /  /

   E  E  S  S  E  E  S  S  +S   S  E
|----10----------10------------10----|
|----------10----------10-(10)-------|
|-11----11----11----11------------11-|
|------------------------------------|
|------------------------------------|
|------------------------------------|


                                       1st & 2nd Verses
                                        G
   E  E  S  S  E  E  S  S  +S   S  E    E E S S E E S S +S  S E
   |  |  |  |  |  |  |  |   |   |  |    | | | | | | | |  |  | |
   /  /  /  /  /  /  /  /   /   /  /    / / / / / / / /  /  / /

   E  E  S  S  E  E  S  S  +S   S  E    E E S S E E S S +S  S E
|----10----------10------------10----||---7-------7---------7---|
|----------10----------10-(10)-------||-------8-------8-(8)-----|
|-11----11----11----11------------11-||-7---7---7---7---------7-|
|------------------------------------||-------------------------|
|------------------------------------||-------------------------|
|------------------------------------||-------------------------|


  F                                 Em        Am
   E E  S  S  E E  S  S  +S  S  E   E E S S E E S  S  +S  S E
   | |  |  |  | |  |  |   |  |  |   | | | | | | |  |   |  | |
   / /  /  /  / /  /  /   /  /  /   / / / / / / /  /   /  / /

   E E  S  S  E E  S  S  +S  S  E   E E S S E E S  S  +S  S E
|----8----------8------------8----|---7-------8-----------8---|
|---------10---------10-(10)------|-------8-------10-(10)-----|
|-10---10----10---10-----------10-|-9---9---9---9-----------9-|
|---------------------------------|---------------------------|
|---------------------------------|---------------------------|
|---------------------------------|---------------------------|


  D
   E  E  S  S  E  E  S  S  +S   S  E
   |  |  |  |  |  |  |  |   |   |  |
   /  /  /  /  /  /  /  /   /   /  /

   E  E  S  S  E  E  S  S  +S   S  E
|----10----------10------------10----|
|----------10----------10-(10)-------|
|-11----11----11----11------------11-|
|------------------------------------|
|------------------------------------|
|------------------------------------|


  Em
  E E S S E E S S +S  S E
  | | | | | | | |  |  | |
  / / / / / / / /  /  / /

  E E S S E E S S +S  S E
|---7-------7---------7---|
|-------8-------8-(8)-----|
|-9---9---9---9---------9-|
|-------------------------|
|-------------------------|
|-------------------------|


  A         D                     G
  E E S S E  E  S  S  +S   S  E   E E S S E E S S +S  S E
  | | | | |  |  |  |   |   |  |   | | | | | | | |  |  | |
  / / / / /  /  /  /   /   /  /   / / / / / / / /  /  / /

  E E S S E  E  S  S  +S   S  E   E E S S E E S S +S  S E
|---8-------10------------10----|---7-------7---------7---|
|-------8---------10-(10)-------|-------8-------8-(8)-----|
|-9---9---9----11------------11-|-7---7---7---7---------7-|
|-------------------------------|-------------------------|
|-------------------------------|-------------------------|
|-------------------------------|-------------------------|


                           1.
  Em
  E E S S E E S S +S  S E   E E S S E E S S +S  S E
  | | | | | | | |  |  | |   | | | | | | | |  |  | |
  / / / / / / / /  /  / /   / / / / / / / /  /  / /

  E E S S E E S S +S  S E   E E S S E E S S +S  S E
|---7-------7---------7---|---7-------7---------7---|
|-------8-------8-(8)-----|-------8-------8-(8)-----|
|-9---9---9---9---------9-|-9---9---9---9---------9-|
|-------------------------|-------------------------|
|-------------------------|-------------------------|
|-------------------------|-------------------------|


  D
   E  E  S  S  E  E  S  S  +S   S  E
   |  |  |  |  |  |  |  |   |   |  |
   /  /  /  /  /  /  /  /   /   /  /

   E  E  S  S  E  E  S  S  +S   S  E
|----10----------10------------10-----||
|----------10----------10-(10)-------o||
|-11----11----11----11------------11--||
|-------------------------------------||
|------------------------------------o||
|-------------------------------------||


  2.
  A                         D
  E E S S E E S S +S  S E    E  E  S  S  E  E  S  S  +S   S  E
  | | | | | | | |  |  | |    |  |  |  |  |  |  |  |   |   |  |
  / / / / / / / /  /  / /    /  /  /  /  /  /  /  /   /   /  /

  E E S S E E S S +S  S E    E  E  S  S  E  E  S  S  +S   S  E
|---8-------8---------8---|----10----------10------------10----|
|-------8-------8-(8)-----|----------10----------10-(10)-------|
|-9---9---9---9---------9-|-11----11----11----11------------11-|
|-------------------------|------------------------------------|
|-------------------------|------------------------------------|
|-------------------------|------------------------------------|


   E  E  S  S  E  E  S  S  +S   S  E
   |  |  |  |  |  |  |  |   |   |  |
   /  /  /  /  /  /  /  /   /   /  /

   E  E  S  S  E  E  S  S  +S   S  E
|----10----------10------------10----||
|----------10----------10-(10)-------||
|-11----11----11----11------------11-||
|------------------------------------||
|------------------------------------||
|------------------------------------||


   Outro
    G         C               G         C
    E E S S E E S S +S  S E   E E S S E E S S +S  S E
    | | | | | | | |  |  | |   | | | | | | | |  |  | |
    / / / / / / / /  /  / /   / / / / / / / /  /  / /

    E E S S E E S S +S  S E   E E S S E E S S +S  S E
||----7-------8---------8---|---7-------8---------8---|
||o-------8-------8-(8)-----|-------8-------8-(8)-----|
||--7---7---7---9---------9-|-7---7---7---9---------9-|
||--------------------------|-------------------------|
||o-------------------------|-------------------------|
||--------------------------|-------------------------|


  G         C
  E E S S E E S S +S  S E
  | | | | | | | |  |  | |
  / / / / / / / /  /  / /

  E E S S E E S S +S  S E   4x
|---7-------8---------8-----||
|-------8-------8-(8)------o||
|-7---7---7---9---------9---||
|---------------------------||
|--------------------------o||
|---------------------------||            
Submit corrections


        Go Where You Wanna Go lessons Hard to play? Try these video lessons and learn fast Go Where You Wanna Go lessons
        
↑ Back to top | Tablatures and chords for acoustic guitar and electric guitar, ukulele, drums are parodies/interpretations of the original songs. You may use it for private study, scholarship, research or language learning purposes only