» » »

Mamas And The Papas - Dream A Little Dream Of Me Tabs

Artists:  A B C D E F G H I J K L M N O P Q R S T U V W X Y Z # 

Dream A Little Dream Of Me Tabs

(ver. 3) Click to play this song!
Mamas And The Papas
 Rating:
4/5 (4 votes)

 Dream A Little Dream Of Me lessons Tabs too difficult? Try these video lessons and learn fast
 
                           C                   C°7                  Ab7                  G7
      x 3 2 0 1 0          x 3 4 2 4 x          4 6 4 5 4 4          3 5 3 4 3 3

           A                    F                   Fm                   E7
      x 0 2 2 2 0          1 3 3 2 1 1          1 3 3 1 1 1          x x 2 4 3 4

          AV                   Bm                   F#m                  A7
      5 7 7 6 5 5          x 2 4 4 3 2          2 4 4 2 2 2          5 7 5 6 5 5



Gtr I (E A D G B E) - 'Eric Hord - Acoustic Nylon String Guitar '
Gtr II (E A D G B E) - 'John Phillips - Acoustic Guitar '


 Intro
  Q=92(8=s8)
     G             C       C°7       F°      G         C       C°7
 4/4
  Gtr I (Ac. Nylon String Gtr.)
  Q  E E E E E E   E E E E E Q   E   E E E E E E E E   E E E E E Q   E
|----------------|-0-3-0---5-------|---4-------3-----|-0-3-0---5--------|
|----0---1---3---|-------0---4-----|-----6---5---0---|-------0---4------|
|------0---0---0-|---------------0-|-------4-------0-|---------------0--|
|----------------|---------4---4---|-----------------|---------4---4----|
|----------------|-3---------------|-----------------|-3----------------|
|----3---3---3---|-----------------|-4---4---3-------|------------------|
  Q  Q   Q   Q     H       Q   Q     Q   Q   H         H       Q   Q


                    1st Verse
  F°      G          C       C°7       F°      G         C
  E E E E E E E E    E E E E E Q   E   E E E E E E E E   E E E E E Q   E
|---4-------3-----||-0-3-0---5-------|---4-------3-----|-----------------|
|-----6---5---0---||-------0---4-----|-----6---5-------|---1-------1-----|
|-------4-------0-||---------------0-|-------4-----4-0-|-------0-0-----0-|
|-----------------||---------4---4---|-----------------|-----2-----------|
|-----------------||-3---------------|-----------------|-3-------2---1---|
|-4---4---3-------||-----------------|-4---4---3-------|-----------------|
  Q   Q   H          H       Q   Q     Q   Q   H         H       Q   Q


  A                 F                 Fm                  C       Ab
  E E E E E E E E   E E E E E E E E   E E E E +E  E E E   E E E E E E E E
|---0-------0-----|---1-------------|-----1-------------|-----------4-----|
|-----2---2---2---|-----1-----1-----|---1---1-(1)-------|---1-----4-----0-|
|-------2-------0-|-------2-2-----2-|-1-----------1---0-|-------0-----5---|
|-----------------|-------------3---|---------------3---|-----2-----------|
|-0---------------|-----------------|-------------------|-3---------------|
|---------0-------|-1-------1-------|-1---1----1--------|---------4-------|
  H       H         H       H         Q   Q    H          H       H


                        2nd & 4th Verses
                      $
  G                      C       C°7       Ab7     G7        C
  Gtr II (Ac. Gtr.)
  W                      Q   E E E E E E   Q   E E E E E E   Q   E E E E E E
                         |   | | | | | |   |   | | | | | |   |   | | | | | |
                         /   / x / / / x   /   / x / / / x   /   / x / / / x

          |-3-| |-3-|
  E E E E E E E E E E    E E E E E Q   E   E E E E E E E E   E E E E E Q   E
|---3---------3-------||-0-3-0---5-------|---4-------3-----|-----------------|
|-----3---3h5---3h5-5-||-------0---4-----|-----6---5-------|---1-------1-----|
|-------4-------------||---------------0-|-------4-----4-0-|-------0-0-----0-|
|---------------------||---------4---4---|-----------------|-----2-----------|
|---------------------||-3---------------|-----------------|-3-------2---1---|
|-3-------3-----3-----||-----------------|-4---4---3-------|-----------------|
  H       Q     Q        H       Q   Q     Q   Q   H         H       Q   Q
          |


  A                 F                 Fm                  C       Ab7 G7
  Q   E E E E E E   Q   E E E E E E   Q   E E  E  E E E   Q   E E E E E E
  |   | | | | | |   |   | | | | | |   |   | |  |  | | |   |   | | | | | |
  /   / x / / / x   /   / x / / / x   /   / x  /  / / x   /   / x / / / x

  E E E E E E E E   E E E E E E E E   E E E E +E  E E E   E E E E Q   E E
|---0-------0-----|---1-------------|-----1-------------|-----------------|
|-----2---2-------|-----1-----1-----|---1---1-(1)-------|---1-----4---3---|
|-------2-----2-0-|-------2-2-----2-|-1-----------1---0-|-------0-------0-|
|-----------------|-------------3---|---------------3---|-----2-----------|
|-0-------0-------|-----------------|-------------------|-3---------------|
|-----------------|-1-------1-------|-1---1----1--------|---------4---3---|
  H       H         H       H         Q   Q    H          H       Q   Q


                     Bridge
  C        E7         A       F#m       Bm       E7          A       F#m
  Q    E E E E E E    Q   E E E E E E   Q    E E  E  E E E   Q   E E E E E E
  |    | | | | | |    |   | | | | | |   |    | |  |  | | |   |   | | | | | |
  /    / x / / / x    /   / x / / / x   /    / x  /  / / x   /   / x / / / x

  E  E E E E E E E    E E E E E E E E   E  E E E +E  E E E   E E E E E E E E
|----0-----4-0-4---||---5-------5-----|-5------4-(4)-----4-|---5-------5------|
|------1-----------||-------5-------2-|------3---------3---|-------5-------2--|
|--------1-------0-||-----6-------2---|----4---------4-----|-----6-------2----|
|----------2---2---||---------4-------|-4---------2--------|---------4--------|
|-3----------------||-7---------------|--------------------|-7----------------|
|------------------||-----------------|--------------------|------------------|
  Q.     E Q   E E    H       H         Q.     E  H          H       H


                                                                       To Coda
  Bm       E7          A       F#m       Bm       E7          A       F#m
  Q    E E  E  E E E   Q   E E E E E E   Q    E E  E  E E E   Q   E E E E E E
  |    | |  |  | | |   |   | | | | | |   |    | |  |  | | |   |   | | | | | |
  /    / x  /  / / x   /   / x / / / x   /    / x  /  / / x   /   / x / / / x

  E  E E E +E  E E E   E E E E E E E E   E  E E E +E  E E E   E E E E E E E E
|-5------4-(4)-----4-|---5-------5-----|-5------4-(4)-----4-|---5-------5------|
|------3---------3---|-------5-------2-|------3---------3---|-------5-------2--|
|----4---------4-----|-----6-------2---|----4---------4-----|-----6-------2----|
|-4---------2--------|---------4-------|-4---------2--------|---------4--------|
|--------------------|-7---------------|--------------------|-7----------------|
|--------------------|-----------------|--------------------|------------------|
  Q.     E  H          H       H         Q.     E  H          H       H


                      3rd Verse
  Ab7      G7          C       C°7       Ab7     G7        C
  Q    E E E  E E E    Q   E E E E E E   Q   E E E E E E   Q   E E E E E E
  |    | | |  | | |    |   | | | | | |   |   | | | | | |   |   | | | | | |
  /    / x /  / / x    /   / x / / / x   /   / x / / / x   /   / x / / / x

  E  E E E E  E E E    E E E E E Q   E   E E E E E E E E   E E E E E Q   E
|-4--------3--------||-0-3-0---5-------|---4-------3-----|-----------------|
|----4---0----3-----||-------0---4-----|-----6---5-------|---1-------1-----|
|------5--------4-0-||---------------0-|-------4-----4-0-|-------0-0-----0-|
|-6--------5--------||---------4---4---|-----------------|-----2-----------|
|-------------------||-3---------------|-----------------|-3-------2---1---|
|-------------------||-----------------|-4---4---3-------|-----------------|
  Q.     E Q.     E    H       Q   Q     Q   Q   H         H       Q   Q


  A7                F                 Fm                  C       Ab7 G7
  Q   E E E E E E   Q   E E E E E E   Q   E E  E  E E E   Q   E E E E E E
  |   | | | | | |   |   | | | | | |   |   | |  |  | | |   |   | | | | | |
  /   / x / / / x   /   / x / / / x   /   / x  /  / / x   /   / x / / / x

  E E E E E E E E   E E E E E E E E   E E E E +E  E E E   E E E E Q   E E
|---0-------0-----|---1-------------|-----1-------------|-----------------|
|-----2---2-------|-----1-----1-----|---1---1-(1)-------|---1-----4---3---|
|-------2-----2-0-|-------2-2-----2-|-1-----------1---0-|-------0-------0-|
|-----------------|-------------3---|---------------3---|-----2-----------|
|-0-------0-------|-----------------|-------------------|-3---------------|
|-----------------|-1-------1-------|-1---1----1--------|---------4---3---|
  H       H         H       H         Q   Q    H          H       Q   Q


                                           5th Verse
        D.S. al Coda   &
  C                    Ab7      G7          C       C°7       Ab7     G7
  Q   E E  E  E E E    Q    E E E  E E E    Q   E E E E E E   Q   E E E E E E
  |   | |  |  | | |    |    | | |  | | |    |   | | | | | |   |   | | | | | |
  /   / x  /  / / x    /    / x /  / / x    /   / x / / / x   /   / x / / / x

  E E E E +E  E E E    E  E E E E  E E E    E E E E E Q   E   E E E E E E E E
|---0-------------0-||-4--------3--------||-0-3-0---5-------|---4-------3-----|
|-----1---------1---||----4---0----3-----||-------0---4-----|-----6---5-------|
|-------0-(0)-0-----||------5--------4-0-||---------------0-|-------4-----4-0-|
|-------------------||-6--------5--------||---------4---4---|-----------------|
|-3--------3--------||-------------------||-3---------------|-----------------|
|-------------------||-------------------||-----------------|-4---4---3-------|
  H        H           Q.     E Q.     E    H       Q   Q     Q   Q   H


  C                 A                 F                 Fm
  Q   E E E E E E   Q   E E E E E E   Q   E E E E E E   Q   E E  E  E E E
  |   | | | | | |   |   | | | | | |   |   | | | | | |   |   | |  |  | | |
  /   / x / / / x   /   / x / / / x   /   / x / / / x   /   / x  /  / / x

  E E E E E Q   E   E E E E E E E E   E E E E E E E E   E E E E +E  E E E
|-----------------|---0-------0-----|---1-------------|-----1-------------|
|---1-------1-----|-----2---2-------|-----1-----1-----|---1---1-(1)-------|
|-------0-0-----0-|-------2-----2-0-|-------2-2-----2-|-1-----------1---0-|
|-----2-----------|-----------------|-------------3---|---------------3---|
|-3-------2---1---|-0-------0-------|-----------------|-------------------|
|-----------------|-----------------|-1-------1-------|-1---1----1--------|
  H       Q   Q     H       H         H       H         Q   Q    H


                     Outro
  C       Ab7 G7      C                 Ab7     G7
  Q   E E E E E E     E E E E E E E E   E E E E E E E E
  |   | | | | | |     | | | | | | | |   | | | | | | | |
  /   / x / / / x     / / / x / / / x   / / / x / / / x

  E E E E Q   E E     E E E E E Q   E   E E E E E E E E  6x
|-----------------||------------------|---4-------3------||
|---1-----4---3---||o---1-------1-----|-----6---5-------o||
|-------0-------0-||--------0-0-----0-|-------4-----4-0--||
|-----2-----------||------2-----------|------------------||
|-3---------------||o-3-------2---1---|-----------------o||
|---------4---3---||------------------|-4---4---3--------||
  H       Q   Q       H       Q   Q     Q   Q   H
            
Submit corrections


        Dream A Little Dream Of Me lessons Hard to play? Try these video lessons and learn fast Dream A Little Dream Of Me lessons
        
↑ Back to top | Tablatures and chords for acoustic guitar and electric guitar, ukulele, drums are parodies/interpretations of the original songs. You may use it for private study, scholarship, research or language learning purposes only