» » »

Mamas And The Papas - Dancing In The Street Tabs

Artists:  A B C D E F G H I J K L M N O P Q R S T U V W X Y Z # 

Dancing In The Street Tabs

(ver. 1) Click to play this song!
Mamas And The Papas
 Rating:
4/5 (4 votes)

 Dancing In The Street  lessons Tabs too difficult? Try these video lessons and learn fast
 
                Gtr I (E A D G B E) - 'Tommy Tedesco - Electric Guitar'
Gtr II (E A D G B E) - 'P.F. Sloan - Electric Guitar'


 Intro
  Q=120
  N.C.            E7
 4/4
  Gtr I (El. Gtr.)
  Wx5          Q   e E Q   e E
|------------|----10------10---|
|------------|-----9-------9---|
|------------|-----9-------9---|
|------------|-----9-------9---|
|------------|-----------------|
|------------|-----------------|


  Q   e E Q   e E   Q   e E Q   e E   Q   e E Q   e E
|----10------10---|----10------10---|----10------10---||
|-----9-------9---|-----9-------9---|-----9-------9---||
|-----9-------9---|-----9-------9---|-----9-------9---||
|-----9-------9---|-----9-------9---|-----9-------9---||
|-----------------|-----------------|-----------------||
|-----------------|-----------------|-----------------||


 1st Verse
     E7
  Q   e E Q   e E   Q   e E Q   e E   Q   e E Q   e E   Q   e E Q    e E
|----10------10---|----10------10---|----10------10---|----10-------10----|
|-----9-------9---|-----9-------9---|-----9-------9---|-----9--------9----|
|-----9-------9---|-----9-------9---|-----9-------9---|-----9--------9----|
|-----9-------9---|-----9-------9---|-----9-------9---|-----9--------9----|
|-----------------|-----------------|-----------------|-------------------|
|-----------------|-----------------|-----------------|-------------------|
|
| Gtr II (El. Gtr.)
| W                 W                 W                 H       E E  E E
|-----------------|-----------------|-----------------|-------------------|
|-----------------|-----------------|-----------------|-------------------|
|-----------------|-----------------|-----------------|-------------------|
|-----------------|-----------------|-----------------|-------------------|
|-----------------|-----------------|-----------------|----------------5--|
|-----------------|-----------------|-----------------|---------5-6--7----|


  Q   e E Q   e E   Q   e E Q   e E   Q   e E Q   e E   Q   e E Q    e E
|----10------10---|----10------10---|----10------10---|----10-------10----|
|-----9-------9---|-----9-------9---|-----9-------9---|-----9--------9----|
|-----9-------9---|-----9-------9---|-----9-------9---|-----9--------9----|
|-----9-------9---|-----9-------9---|-----9-------9---|-----9--------9----|
|-----------------|-----------------|-----------------|-------------------|
|-----------------|-----------------|-----------------|-------------------|
|
| H       H         W                 W                 H       E E  E E
|-----------------|-----------------|-----------------|-------------------|
|-----------------|-----------------|-----------------|-------------------|
|-----------------|-----------------|-----------------|-------------------|
|-----------------|-----------------|-----------------|-------------------|
|-----------------|-----------------|-----------------|-------------------|
|-0---------------|-----------------|-----------------|-----------5--6-7--|


  Q   e E Q   e E   Q   e E Q   e E   Q   e E Q   e E   Q   e E Q   e E
|----10------10---|----10------10---|----10------10---|----10------10----|
|-----9-------9---|-----9-------9---|-----9-------9---|-----9-------9----|
|-----9-------9---|-----9-------9---|-----9-------9---|-----9-------9----|
|-----9-------9---|-----9-------9---|-----9-------9---|-----9-------9----|
|-----------------|-----------------|-----------------|------------------|
|-----------------|-----------------|-----------------|------------------|
|
| H       H         W                 W                 W
|-----------------|-----------------|-----------------|------------------|
|-----------------|-----------------|-----------------|------------------|
|-----------------|-----------------|-----------------|------------------|
|-----------------|-----------------|-----------------|------------------|
|-----------------|-----------------|-----------------|------------------|
|-0---------------|-----------------|-----------------|------------------|


                                         A7
  Q   e E Q   e E   Q   e E Q   e E   Q  e E Q  e E   Q  e E Q  e E
|----10------10---|----10------10---|----5------5---|----5------5----|
|-----9-------9---|-----9-------9---|----8------8---|----8------8----|
|-----9-------9---|-----9-------9---|----6------6---|----6------6----|
|-----9-------9---|-----9-------9---|----5------5---|----5------5----|
|-----------------|-----------------|---------------|----------------|
|-----------------|-----------------|---------------|----------------|


                                     E7
  Q  e E Q  e E   Q  e E Q  e E   Q   e E Q   e E
|----5------5---|----5------5---|----10------10---|
|----8------8---|----8------8---|-----9-------9---|
|----6------6---|----6------6---|-----9-------9---|
|----5------5---|----5------5---|-----9-------9---|
|---------------|---------------|-----------------|
|---------------|---------------|-----------------|


  Q   e E Q   e E   Q   e E Q   e E   Q   e E Q   e E
|----10------10---|----10------10---|----10------10---||
|-----9-------9---|-----9-------9---|-----9-------9---||
|-----9-------9---|-----9-------9---|-----9-------9---||
|-----9-------9---|-----9-------9---|-----9-------9---||
|-----------------|-----------------|-----------------||
|-----------------|-----------------|-----------------||


 Bridge
  $
  G#                              C#m
  Q  E E E Q  E   Q  E E E Q  E   Q  E E E Q  E   Q  E E E Q  E
|-4--4-4-4-4--4-|-4--4-4-4-4--4-|-4--4-4-4-4--4-|-4--4-4-4-4--4--|
|-4--4-4-4-4--4-|-4--4-4-4-4--4-|-5--5-5-5-5--5-|-5--5-5-5-5--5--|
|-5--5-5-5-5--5-|-5--5-5-5-5--5-|-6--6-6-6-6--6-|-6--6-6-6-6--6--|
|-6--6-6-6-6--6-|-6--6-6-6-6--6-|-6--6-6-6-6--6-|-6--6-6-6-6--6--|
|-6--6-6-6-6--6-|-6--6-6-6-6--6-|-4--4-4-4-4--4-|-4--4-4-4-4--4--|
|-4--4-4-4-4--4-|-4--4-4-4-4--4-|---------------|----------------|


                                         To Coda
  F#                              A                B7
  Q  E E E Q  E   Q  E E E Q  E   Q  E E E Q  E    Q  E E E Q  E
|-2--2-2-2-2--2-|-2--2-2-2-2--2-|-5--5-5-5-5--5--|-7--7-7-7-7--7-||
|-2--2-2-2-2--2-|-2--2-2-2-2--2-|-5--5-5-5-5--5--|-7--7-7-7-7--7-||
|-3--3-3-3-3--3-|-3--3-3-3-3--3-|-6--6-6-6-6--6--|-8--8-8-8-8--8-||
|-4--4-4-4-4--4-|-4--4-4-4-4--4-|-7--7-7-7-7--7--|-7--7-7-7-7--7-||
|-4--4-4-4-4--4-|-4--4-4-4-4--4-|-7--7-7-7-7--7--|-9--9-9-9-9--9-||
|-2--2-2-2-2--2-|-2--2-2-2-2--2-|-5--5-5-5-5--5--|-7--7-7-7-7--7-||


   2nd Verse
       E7
    Q   e E Q   e E   Q   e E Q   e E   Q   e E Q   e E   Q   e E Q   e E  4x
||-----10------10---|----10------10---|----10------10---|----10------10----||
||o-----9-------9---|-----9-------9---|-----9-------9---|-----9-------9---o||
||------9-------9---|-----9-------9---|-----9-------9---|-----9-------9----||
||------9-------9---|-----9-------9---|-----9-------9---|-----9-------9----||
||o-----------------|-----------------|-----------------|-----------------o||
||------------------|-----------------|-----------------|------------------||


                                         A7
  Q   e E Q   e E   Q   e E Q   e E   Q  e E Q  e E   Q  e E Q  e E
|----10------10---|----10------10---|----5------5---|----5------5----|
|-----9-------9---|-----9-------9---|----8------8---|----8------8----|
|-----9-------9---|-----9-------9---|----6------6---|----6------6----|
|-----9-------9---|-----9-------9---|----5------5---|----5------5----|
|-----------------|-----------------|---------------|----------------|
|-----------------|-----------------|---------------|----------------|


                                     E7
  Q  e E Q  e E   Q  e E Q  e E   Q   e E Q   e E   Q   e E Q   e E
|----5------5---|----5------5---|----10------10---|----10------10----|
|----8------8---|----8------8---|-----9-------9---|-----9-------9----|
|----6------6---|----6------6---|-----9-------9---|-----9-------9----|
|----5------5---|----5------5---|-----9-------9---|-----9-------9----|
|---------------|---------------|-----------------|------------------|
|---------------|---------------|-----------------|------------------|


                                  El. Piano Solo
                                                    1.,2.,3.,4.,5.,6.,7.
                      N.C.            E7
   Q   Q   E  Q   E   W            Q   e E Q   e E   Q   e E Q   e E   8x
|-10--10--10-10--10-|----------||-----10------10---|----10------10-----||
|--9---9---9--9---9-|----------||o-----9-------9---|-----9-------9----o||
|--9---9---9--9---9-|----------||------9-------9---|-----9-------9-----||
|--9---9---9--9---9-|----------||------9-------9---|-----9-------9-----||
|-------------------|----------||o-----------------|------------------o||
|-------------------|----------||------------------|-------------------||


  8.
      D.S. al Coda &
                      B7
  Q   e E Q   e E     Q  E E E Q  E   Q  E E E Q  E   Q  E E E Q  E
|----10------10----||-7--7-7-7-7--7-|-7--7-7-7-7--7-|-7--7-7-7-7--7-||
|-----9-------9----||-7--7-7-7-7--7-|-7--7-7-7-7--7-|-7--7-7-7-7--7-||
|-----9-------9----||-8--8-8-8-8--8-|-8--8-8-8-8--8-|-8--8-8-8-8--8-||
|-----9-------9----||-7--7-7-7-7--7-|-7--7-7-7-7--7-|-7--7-7-7-7--7-||
|------------------||-9--9-9-9-9--9-|-9--9-9-9-9--9-|-9--9-9-9-9--9-||
|------------------||-7--7-7-7-7--7-|-7--7-7-7-7--7-|-7--7-7-7-7--7-||


   Outro
    E7
     Q   Q   E  Q   E    Q   Q   E  Q   E
||--10--10--10-10--10-|-10--10--10-10--10-|
||o--9---9---9--9---9-|--9---9---9--9---9-|
||---9---9---9--9---9-|--9---9---9--9---9-|
||---9---9---9--9---9-|--9---9---9--9---9-|
||o-------------------|-------------------|
||--------------------|-------------------|


   Q   Q   E  Q   E    Q   Q   E  Q   E  5x
|-10--10--10-10--10-|-10--10--10-10--10--||
|--9---9---9--9---9-|--9---9---9--9---9-o||
|--9---9---9--9---9-|--9---9---9--9---9--||
|--9---9---9--9---9-|--9---9---9--9---9--||
|-------------------|-------------------o||
|-------------------|--------------------||
            
Submit corrections


        Dancing In The Street  lessons Hard to play? Try these video lessons and learn fast Dancing In The Street  lessons
        
↑ Back to top | Tablatures and chords for acoustic guitar and electric guitar, ukulele, drums are parodies/interpretations of the original songs. You may use it for private study, scholarship, research or language learning purposes only