» » »

Mamas And The Papas - Creeque Alley Tabs

Artists:  A B C D E F G H I J K L M N O P Q R S T U V W X Y Z # 

Creeque Alley Tabs

(ver. 2) Click to play this song!
Mamas And The Papas
 Rating:
4/5 (4 votes)

 Creeque Alley lessons Tabs too difficult? Try these video lessons and learn fast
 
                Gtr I (E A D G B E) - 'John Phillips - Acoustic Guitar'



   Intro
    Q=134(8=s8)
    A7
   4/4
    Gtr I (Ac. Gtr.)
    Q  E E +E  E E E   +Q   E E E E Q   4x
||-----0-0-(0)-0-0-0-|-(0)--0-0-0-0-----||
||o----2-2-(2)-2-2-2-|-(2)--2-2-2-2----o||
||-----0-0-(0)-0-0-0-|-(0)--0-0-0-------||
||-----2-2-(2)-2-2-2-|-(2)--2-2-2-------||
||o-0----------------|--0--------------o||
||----------0--------|----------0---3---||
    H       H           H       Q   Q


   1st - 6th Verses
    A7
    Q  E E E E E E   Q  E E E E E E   Q  E E E E E E   Q  E E E E E E
||--0--0-0-0-0-0-0-|-0--0-0-0-0-0-0-|-0--0-0-0-0-0-0-|-0--0-0-0-0-0-0-|
||o-2--2-2-2-2-2-2-|-2--2-2-2-2-2-2-|-2--2-2-2-2-2-2-|-2--2-2-2-2-2-2-|
||--0--0-0-0-0-0-0-|-0--0-0-0-0-0-0-|-0--0-0-0-0-0-0-|-0--0-0-0-0-0-0-|
||--2--2-2-2-2-2-2-|-2--2-2-2-2-2-2-|-2--2-2-2-2-2-2-|-2--2-2-2-2-2-2-|
||o-0--0-0-0-0-0-0-|-0--0-0-0-0-0-0-|-0--0-0-0-0-0-0-|-0--0-0-0-0-0-0-|
||-----------------|----------------|----------------|----------------|


  D7                                A7
  Q  E E E E E E   Q  E E E E E E   Q  E E E E E E   Q  E E E E E E
|-2--2-2-2-2-2-2-|-2--2-2-2-2-2-2-|-0--0-0-0-0-0-0-|-0--0-0-0-0-0-0--|
|-1--1-1-1-1-1-1-|-1--1-1-1-1-1-1-|-2--2-2-2-2-2-2-|-2--2-2-2-2-2-2--|
|-2--2-2-2-2-2-2-|-2--2-2-2-2-2-2-|-0--0-0-0-0-0-0-|-0--0-0-0-0-0-0--|
|-0--0-0-0-0-0-0-|-0--0-0-0-0-0-0-|-2--2-2-2-2-2-2-|-2--2-2-2-2-2-2--|
|----------------|----------------|-0--0-0-0-0-0-0-|-0--0-0-0-0-0-0--|
|----------------|----------------|----------------|-----------------|


  E7                                D7
  Q  E E E E E E   Q  E E E E E E   Q  E E E E E E   Q  E E E E E E
|-0--0-0-0-0-0-0-|-0--0-0-0-0-0-0-|-2--2-2-2-2-2-2-|-2--2-2-2-2-2-2--|
|-3--3-3-3-3-3-3-|-3--3-3-3-3-3-3-|-1--1-1-1-1-1-1-|-1--1-1-1-1-1-1--|
|-1--1-1-1-1-1-1-|-1--1-1-1-1-1-1-|-2--2-2-2-2-2-2-|-2--2-2-2-2-2-2--|
|-0--0-0-0-0-0-0-|-0--0-0-0-0-0-0-|-0--0-0-0-0-0-0-|-0--0-0-0-0-0-0--|
|-2--2-2-2-2-2-2-|-2--2-2-2-2-2-2-|----------------|-----------------|
|-0--0-0-0-0-0-0-|-0--0-0-0-0-0-0-|----------------|-----------------|


  A7                                                 D7
  Q  E E E E E E   Q  E E E E E E   Q  E E E E E E   Q  E E E E E E
|-0--0-0-0-0-0-0-|-0--0-0-0-0-0-0-|-0--0-0-0-0-0-0-|-2--2-2-2-2-2-2--|
|-2--2-2-2-2-2-2-|-2--2-2-2-2-2-2-|-2--2-2-2-2-2-2-|-1--1-1-1-1-1-1--|
|-0--0-0-0-0-0-0-|-0--0-0-0-0-0-0-|-0--0-0-0-0-0-0-|-2--2-2-2-2-2-2--|
|-2--2-2-2-2-2-2-|-2--2-2-2-2-2-2-|-2--2-2-2-2-2-2-|-0--0-0-0-0-0-0--|
|-0--0-0-0-0-0-0-|-0--0-0-0-0-0-0-|-0--0-0-0-0-0-0-|-----------------|
|----------------|----------------|----------------|-----------------|


                                                    1.,2.,3.,4.,5.
                   C7               A7
  Q  E E E E E E   Q  E E E E E E   Q  E E E E E E   Q  E E E E E E   6x
|-2--2-2-2-2-2-2-|----------------|-0--0-0-0-0-0-0-|-0--0-0-0-0-0-0---||
|-1--1-1-1-1-1-1-|-1--1-1-1-1-1-1-|-2--2-2-2-2-2-2-|-2--2-2-2-2-2-2--o||
|-2--2-2-2-2-2-2-|-3--3-3-3-3-3-3-|-0--0-0-0-0-0-0-|-0--0-0-0-0-0-0---||
|-0--0-0-0-0-0-0-|-2--2-2-2-2-2-2-|-2--2-2-2-2-2-2-|-2--2-2-2-2-2-2---||
|----------------|-3--3-3-3-3-3-3-|-0--0-0-0-0-0-0-|-0--0-0-0-0-0-0--o||
|----------------|----------------|----------------|------------------||


                   Outro
  6.
                    D7               C7               A7
  Q  E E E E E E    Q  E E E E E E   Q  E E E E E E   Q  E E E E E E
|-0--0-0-0-0-0-0-||-2--2-2-2-2-2-2-|----------------|-0--0-0-0-0-0-0--|
|-2--2-2-2-2-2-2-||-1--1-1-1-1-1-1-|-1--1-1-1-1-1-1-|-2--2-2-2-2-2-2--|
|-0--0-0-0-0-0-0-||-2--2-2-2-2-2-2-|-3--3-3-3-3-3-3-|-0--0-0-0-0-0-0--|
|-2--2-2-2-2-2-2-||-0--0-0-0-0-0-0-|-2--2-2-2-2-2-2-|-2--2-2-2-2-2-2--|
|-0--0-0-0-0-0-0-||----------------|-3--3-3-3-3-3-3-|-0--0-0-0-0-0-0--|
|----------------||----------------|----------------|-----------------|


                   D7               C7               A7
  Q  E E E E E E   Q  E E E E E E   Q  E E E E E E   W
|-0--0-0-0-0-0-0-|-2--2-2-2-2-2-2-|----------------|-0----*|
|-2--2-2-2-2-2-2-|-1--1-1-1-1-1-1-|-1--1-1-1-1-1-1-|-2----*|
|-0--0-0-0-0-0-0-|-2--2-2-2-2-2-2-|-3--3-3-3-3-3-3-|-0----*|
|-2--2-2-2-2-2-2-|-0--0-0-0-0-0-0-|-2--2-2-2-2-2-2-|-2----*|
|-0--0-0-0-0-0-0-|----------------|-3--3-3-3-3-3-3-|-0----*|
|----------------|----------------|----------------|------*|
            
Submit corrections


        Creeque Alley lessons Hard to play? Try these video lessons and learn fast Creeque Alley lessons
        
↑ Back to top | Tablatures and chords for acoustic guitar and electric guitar, ukulele, drums are parodies/interpretations of the original songs. You may use it for private study, scholarship, research or language learning purposes only