» » »

Mamas And The Papas - Creeque Alley Bass

Artists:  A B C D E F G H I J K L M N O P Q R S T U V W X Y Z # 

Creeque Alley Bass

(ver. 1) Click to play this song!
Mamas And The Papas
 Rating:
4/5 (4 votes)

 Creeque Alley lessons Tabs too difficult? Try these video lessons and learn fast
 
                -------------------------------------------------------------------------------
                       CREEQUE ALLEY - Mamas and the Papas
-------------------------------------------------------------------------------

Tuning:EADG

INTRO:

G|---------------|
D|---------------|
A|2---2p0-----0--|   x2
E|--------2------|

Rest of song:

G|---------------|
D|---------------|
A|2---2p0-----0--|   x4
E|--------2------|

G|---------------|
D|2---2p0-----0--|   
A|--------2------|   x2
E|---------------|

G|---------------|
D|---------------|
A|2---2p0-----0--|   x2
E|--------2------|

G|---------------|
D|4---4p2-----2--|
A|--------4------|   x2
E|---------------|

G|---------------|
D|2---2p0-----0--|
A|--------2------|   x4
E|---------------|

G|---------------|
D|---------------|
A|2---2p0-----0--|   x3
E|--------2------|

G|---------------|
D|2---2p0-----0--|
A|--------2------|   x2
E|---------------|

G|---------------|
D|---------------|
A|5---5p3-----3--|   x1
E|--------5------|

G|---------------|
D|---------------|
A|2---2p0-----0--|   x2
E|--------2------|

REPEAT FOR ALL VERSES
            
Submit corrections


        Creeque Alley lessons Hard to play? Try these video lessons and learn fast Creeque Alley lessons
        
↑ Back to top | Tablatures and chords for acoustic guitar and electric guitar, ukulele, drums are parodies/interpretations of the original songs. You may use it for private study, scholarship, research or language learning purposes only