» » »

Mago De Oz - La Rosa De Los Vientos Tabs

Artists:  A B C D E F G H I J K L M N O P Q R S T U V W X Y Z # 

La Rosa De Los Vientos Tabs

(ver. 3) Click to play this song!
Mago De Oz
 Rating:
4/5 (4 votes)


 La Rosa De Los Vientos lessons Tabs too difficult? Try these video lessons and learn fast
 
                This is the solo of the Metal Version of La Rosa de los Vientos:


|-7p4h5-7p5p4-9p5h7-9p7p5-10p7h9-10p9p7-12p9h11-12p11p9-|
|-------------------------------------------------------|
|-------------------------------------------------------|
|-------------------------------------------------------|
|-------------------------------------------------------|
|-------------------------------------------------------|


-14p11h12-14p12p11-16p12h14-16p14p12-17p14h16-17p16p14--|
--------------------------------------------------------|
--------------------------------------------------------|
--------------------------------------------------------|
--------------------------------------------------------|
--------------------------------------------------------|


-19p15h17-19p17p15-19b21r-19-16--------------|
--------------------------------19-17-16-----|
-----------------------------------------16--|
---------------------------------------------|
---------------------------------------------|
---------------------------------------------|


|----------------------------------------------------------|
|---------------------------9------9-10----9-10-12-9-10-12-|
|------8-9----8-9-11-8-9-11---9-11------11-----------------|
|-9-11-----11----------------------------------------------|
|----------------------------------------------------------|
|----------------------------------------------------------|


-------------11----------12----------14-------14-16----14-|
-14-10-12-14----12-14-16----14-16-17----16-17-------17----|
----------------------------------------------------------|
----------------------------------------------------------|
----------------------------------------------------------|
----------------------------------------------------------|


-16-17-19----14-16-17-19--|
----------17--------------|
--------------------------|
--------------------------|
--------------------------|
--------------------------|


|-0-0-12-0-0-11-0-0-9-0-0-7-0-0-5-0-4-0-5-0-0-4-0-0-2-0-0-|
|---------------------------------------------------------|
|---------------------------------------------------------|
|---------------------------------------------------------|
|---------------------------------------------------------|
|---------------------------------------------------------|


-----------0h2-0-------|-------15b16-------15b17r15-14-12-|
-4-0-0-4-5-------0---0-|-12-12-------12-12----------------|
-------------------2---|----------------------------------|
-----------------------|----------------------------------|
-----------------------|----------------------------------|
-----------------------|----------------------------------|


-------12-14-------------|
-------------12----------|
-14-14----------13-11----|
----------------------14-|
-------------------------|
-------------------------|
            
Submit corrections



        La Rosa De Los Vientos lessons Hard to play? Try these video lessons and learn fast La Rosa De Los Vientos lessons
        
↑ Back to top | Tablatures and chords for acoustic guitar and electric guitar, ukulele, drums are parodies/interpretations of the original songs. You may use it for private study, scholarship, research or language learning purposes only