» » »

Madness - Shut Up Tabs

Artists:  A B C D E F G H I J K L M N O P Q R S T U V W X Y Z # 

Shut Up Tabs

(ver. 1) Click to play this song!
Madness
 Rating:
4/5 (4 votes)
    Shut Up lessons Tabs too difficult? Try these video lessons and learn fast
                                                  Madness
                             Shut up (Guitar solo)

E--0----2-3---3-2-7-2------------------5------------------------------------|
B-----------------------3----5-6----6-5-5-------------------8---------------|
G--------------------------------------------5----7-8---8-7--7--------------|
D----------------------------------------------------------------8----10-11-|
A---------------------------------------------------------------------------|
E---------------------------------------------------------------------------|


E-13-13-13-12(b)-|
B----------------|
G----------------|
D----------------|
A----------------|
E----------------|
            
Submit corrections

↑ Back to top | Tablatures and chords for acoustic guitar and electric guitar, ukulele, drums are parodies/interpretations of the original songs. You may use it for private study, scholarship, research or language learning purposes only