» » »

Machinae Supremacy - Cryosleep Bass

Artists:  A B C D E F G H I J K L M N O P Q R S T U V W X Y Z # 

Cryosleep Bass

(ver. 1) Click to play this song!
Machinae Supremacy
 Rating:
4/5 (4 votes)


 Cryosleep lessons Tabs too difficult? Try these video lessons and learn fast
 
                [h]=hammer on.
[p]=powerchord

[intro bass only][starts at 0:30]

x:-5-5-5-4-5-5-5-5-4-5-5-5-5-4-5-5-5-4-5-5-5-6-5-5-5-5-6|
x:------------------------------------------------------|
x:------------------------------------------------------|
x:------------------------------------------------------|x3

[music starts at 1:12]

x:-0-1-0-1-2-3-4-3-2-4-2-1-1-1-2-3-1-1-1-1-1-1-0-1-2-3-4|
x:0---------------------------------------------------0-|
x:------------------------------------------------------|
x:------------------------------------------------------|x2

[1:26]

x:-5-6-5-7-5-4-5-6-7-8-6-5-4-3-2-2-2-2-2-2-2-2-2-2-2-1-2|
x:------------------------------------------------------|
x:------------------------------------------------------|
x:------------------------------------------------------|

[1:33]

x:-0-1-0-1-2-3-4-3-2-4-2-1-1-1-2-3-1-1-1-1-1-1-0-1-2-3-4|
x:0---------------------------------------------------0-|
x:------------------------------------------------------|
x:------------------------------------------------------|x4


[2:09]

x:------------------------------------------------------|
x:0---------------------------------------------------0-|
x:------------------------------------------------------|
x:--1--1--1--1--1--1--1--1--3--1--2--1--1-1-1--1--1--0-0|x3

[2:36]

x:-------------------------------------------------------|
x:1-2-1-1-1-0-1-2-2-2-2-2-2-2-1-1-1-1-2-2-2-2-2-2-2-2-2-2|
x:-------------------------------------------------------|
x:-------------------------------------------------------|x5

[3:05]


x:-0-1-0-1-2-3-4-3-2-4-2-1-1-1-2-3-1-1-1-1-1-1-0-1-2-3-4|
x:0---------------------------------------------------0-|
x:------------------------------------------------------|
x:------------------------------------------------------|x2

[3:33]

x:------------------------------------------------------|
x:0---------------------------------------------------0-|
x:------------------------------------------------------|
x:--1--1--1--1--1--1--1--1--3--1--2--1--1-1-1--1--1--0-0|x2

[3:48]

x:-1-1-1-1-1-1-1-1-1-1-1-1-1-0-1-1-1-1-1-1-1-1-1-1-1-1-1|
x:------------------------------------------------------|
x:------------------------------------------------------|
x:------------------------------------------------------|x2

[4:16]

x:-0--[h]1-2-3-4-3-2-4-2-1-1-1-2-3-1-1-1-1-1-1-0-1-2-3-4|
x:0---------------------------------------------------0-|
x:------------------------------------------------------|
x:------------------------------------------------------|x7

[end]
            
Submit corrections



        Cryosleep lessons Hard to play? Try these video lessons and learn fast Cryosleep lessons
        
↑ Back to top | Tablatures and chords for acoustic guitar and electric guitar, ukulele, drums are parodies/interpretations of the original songs. You may use it for private study, scholarship, research or language learning purposes only