» » »

Lynyrd Skynyrd - Comin Home Tabs

Artists:  A B C D E F G H I J K L M N O P Q R S T U V W X Y Z # 

Comin Home Tabs

(ver. 3) Click to play this song!
Lynyrd Skynyrd
 Rating:
4.8/5 (16 votes)


 Comin Home lessons Tabs too difficult? Try these video lessons and learn fast
 
                Lynyrd Skynyrd
Comin Home (1st solo)


This is the first solo of comin home by lynyrd skynyrd  


/    =   slide
~    =   vibrate
h    =   hammer=on
b    =   bend
br   =   bend then release
bb   =   bend then bend again without hitting the string on the second bend
bhr  =   bend higher than other bend and then release




Here's the solo:

|----------------------------------------------|
|----------------------------------------------|
|------/7~------------9b~---9br-7-9b-9-7~------|
|----------------------------------------------|
|----------------------------------------------|
|----------------------------------------------|


|----------------------------------------------------|
|-----------------7-10-------------------------------|
|----7---7---7-9b------9br-7---7-9-9bb-7---7-/7~-----|
|-/9---9---9-----------------9-----------9-----------|
|----------------------------------------------------|
|----------------------------------------------------|

                       _ _ _ _ _ _ _ _ _ _ _ _
                       |    * Hold bend *    |
|-----10---------------|                     |--------------------------------|
|--------13------------|                     |--------------------------------|
|-----------12br-10-----12b-12b-12b-12b-12bhr-10----12-10---------------------|
|-/12---------------12---------------------------12-------12-10---------------|
|---------------------------------------------------------------12-10-8-10----|
|--------------------------------------------------------------------------10-|


|--------------------------------------------------------------------------|
|--------------------------------------------------------------------------|
|-----------------------------------10----10-11-12-12b-12br-10----10-10----|
|-----------------------10----10h12----12----------------------12-------12-|
|-----8----8----8-10/12----12----------------------------------------------|
|-/10---10---10------------------------------------------------------------|


|----------------------------------14-17----------------------|
|------15----15-----15-15---15-17b-------17br-15-----15-------|
|--/16----16-----16-------16----------------------16----------|
|-------------------------------------------------------------|
|-------------------------------------------------------------|
|-------------------------------------------------------------|


|----------------------------------------------------------|
|-17b-17b-17br------17b-17b-17r----17b-17b-17r-------------|
|----------------------------------------------------------|
|----------------------------------------------------------|
|----------------------------------------------------------|
|----------------------------------------------------------|


|-------------------------------------------------------|
|-17b-17b-17br-p15-17-15-17~----15----15h17-15-17~------|
|----------------------------------16-------------------|
|-------------------------------------------------------|
|-------------------------------------------------------|
|-------------------------------------------------------|


|-----------------------------------------|
|-15----15-17-15----15-16-15-15~----------|
|----16----------16-----------------------|
|-----------------------------------------|
|-----------------------------------------|
|-----------------------------------------|



That's it, have fun...
            
Submit corrections



        Comin Home lessons Hard to play? Try these video lessons and learn fast Comin Home lessons
        
↑ Back to top | Tablatures and chords for acoustic guitar and electric guitar, ukulele, drums are parodies/interpretations of the original songs. You may use it for private study, scholarship, research or language learning purposes only