» » »

Lumineers - Ho Hey Bass

Artists:  A B C D E F G H I J K L M N O P Q R S T U V W X Y Z # 

Ho Hey Bass

(ver. 2) Click to play this song!
Lumineers
 Rating:
4/5 (4 votes)

 Ho Hey lessons Tabs too difficult? Try these video lessons and learn fast
 
                The bass doesn't come in until 1:10

 |1  2  3  4  |1  2  3  4  |1  2  3  4  |1  2  3  4  |1  2  3  4  |1  2  3  4  |
G|------------|------------|------------|------------|------------|------------|
D|------------|-----------3|------------|-----------3|-----------3|------------|
A|3-----------|3-----------|3-----------|3-----------|3-----------|3-----------|
E|------------|------------|------------|------------|------------|------------|

 |1  2  3  4  |1  2  3  4  |1  2  3  4  |1  2  3  4  |1  2  3  4  |1  2  3  4  | 
G|------------|------------|------------|------------|------------|------------|
D|7-----------|5-----------|------------|7-----------|5-----5----3|------------|
A|------------|------------|3-----------|------------|------------|3-----------|
E|------------|------------|------------|------------|------------|------------|

 |1  2  3  4  |1  2  3  4  |1  2  3  4  |1  2  3  4  |1  2  3  4  |1  2  3  4  | 
G|------------|------------|---5-----5--|------------|------------|---5--------|
D|7-----7-----|5-----5-----|------------|7-----7-----|5-----5-----|------------|
A|------------|------------|------------|------------|------------|------------|
E|------------|------------|3-----3-----|------------|------------|3-----3--3--|


restart @ 2:00

 |1  2  3  4  |1  2  3  4  |1  2  3  4  |
G|------------|---------5--|------5--5--|
D|5------5-5-5|3--3--3-----|5--5--------|
A|------------|------------|------------|
E|------------|------------|------------|

 |1  2  3  4  |1  2  3  4  |1  2  3  4  |1  2  3  4  |1  2  3  4  | 
G|------------|------------|---5-----5--|------------|------------|
D|7-----7-----|5-----5-----|------------|7-----7-----|5-----5-----|
A|------------|------------|------------|------------|------------|
E|------------|------------|3-----3-----|------------|------------|

 |1  2  3  4  |1  2  3  4  |1  2  3  4  |1  2  3  4  |
G|------------|------------|------------|------------|
D|------------|-----------3|------------|------------|
A|3-----------|3-----------|3-----------|3-----------|
E|------------|------------|------------|------------|            
Submit corrections


        Ho Hey lessons Hard to play? Try these video lessons and learn fast Ho Hey lessons
        
↑ Back to top | Tablatures and chords for acoustic guitar and electric guitar, ukulele, drums are parodies/interpretations of the original songs. You may use it for private study, scholarship, research or language learning purposes only