» » »

Lumineers - Charlie Boy Chords

Artists:  A B C D E F G H I J K L M N O P Q R S T U V W X Y Z # 

Charlie Boy Chords

(ver. 3) Click to play this song!
Lumineers
 Rating:
4/5 (4 votes)

 Charlie Boy  lessons Tabs too difficult? Try these video lessons and learn fast
 
                (3)
e|------------------10--12--12--10------12--10-----10----|
B|----------10--12------------------12----------12-----12|
G|--12--12-----------------------------------------------|
D|-------------------------------------------------------|
A|-------------------------------------------------------|
E|-------------------------------------------------------|

e|--------------10--12--12--10--------12--10-----10------|
B|------10--12--------------------12----------12----13-12|
G|--12---------------------------------------------------|
D|-------------------------------------------------------|
A|-------------------------------------------------------|
E|-------------------------------------------------------|
Charlie boy, don't go to war, first born in forty - four
G            Cadd9    G  Em F#/D  Em F#/D G
Kennedy made him believe we could do much more

        Em     F#/D G      Cadd9 G      F#/D G       x2
(Count: 1     2     3     4|    |1     2     3     4)
Ohhh..
G              Cadd9     G     Em   F#/D   Em       F#/D G
Lillian, don't hang your head, love should make you feel good
   G           Cadd9    G        Em  F#/D Em     F#/D G
In uniform you raised a man, who vol--un--teered to   stand

        Em     F#/D G      Cadd9 G      F#/D G       x2
(Count: 1     2     3     4|    |1     2     3     4)
Ohhh

[Chorus]
Cadd9           Em       F#/D
Play the bugle, play the taps and
Cadd9     Em           F#/D
Make your mothers proud
Cadd9             Em     F#/D
Raise your rifles to the sky boys
Cadd9     Em         F#/D
Fire that volley loud

[Verse]
G               Cadd9  G       Em F#/D Em    F#/D G
News was bad on upland ave., metu-chen mourn our  loss
G                    Cadd9   G           Em  F#/D Em       F#/D G
Sons rebelled, while fathers yelled, and mot-hers clutched the  cross

        Em     F#/D G      Cadd9 G      F#/D G       x2
(Count: 1     2     3     4|    |1     2     3     4)
Ohhh

[Chorus]
Cadd9           Em       F#/D
Play the bugle, play the taps and
Cadd9     Em           F#/D
Make your mothers proud
Cadd9             Em     F#/D
Raise your rifles to the sky boys
Cadd9     Em         F#/D
Fire that volley loud

(Outro)
G Cadd9 G Em F#/D Em F#/D G
            
Submit corrections


        Charlie Boy  lessons Hard to play? Try these video lessons and learn fast Charlie Boy  lessons
        
↑ Back to top | Tablatures and chords for acoustic guitar and electric guitar, ukulele, drums are parodies/interpretations of the original songs. You may use it for private study, scholarship, research or language learning purposes only