» » »

Lostprophets - Everyday Combat Tabs

Artists:  A B C D E F G H I J K L M N O P Q R S T U V W X Y Z # 

Everyday Combat Tabs

(ver. 2) Click to play this song!
Lostprophets
 Rating:
4/5 (4 votes)

 Everyday Combat lessons Tabs too difficult? Try these video lessons and learn fast
 
                Band: Lostprophets
Dropped D tuning: eBGDAD

I know how to play all of the song besides the solo.

Intro Guitar 1 (x7)
e|-------------------------------|
B|-------------------------------|
G|-------------------------------|
D|-------------------------------|
A|-----2---2h3-2-2-----2-------2-|
D|-4-4---4---------0-0---0-2-2---|

No Guitar 2 until Verse

Verse 
Guitar 1 x4
e|---------------------------------------------------------|
B|---------------------------------------------------------|
G|---------------2-----------------------------------------|
D|-4-------------2-------------2-------------2-------------|
A|-4-------------0-------------2-------------2-------------|
D|-4---------------------------2-------------2-------------|
|
Guitar 2 x6
e|---------------------------------------------------------|
B|---------------------------------------------------------|
G|---11-11-11-11---11-11-11-11---11-11-11-11---11-11-11-11-|
D|---x--x--x--x----x--x--x--x----x--x--x--x----x--x--x--x--|
A|---9--9--9--9----9--9--9--9----9--9--9--9----9--9--9--9--|
D|---------------------------------------------------------|

Verse part 2
Guitar 1 x2
e|---------------------------------------------------------|
B|---------------------------------------------------------|
G|---------------2--2-2-2-2-22-----------------------------|
D|-4--4-4-4-4-44-2--2-2-2-2-22-2--2-2-2-2-22-2--2-2-2-2-22-|
A|-4--4-4-4-4-44-0--0-0-0-0-00-2--2-2-2-2-22-2--2-2-2-2-22-|
D|-4--4-4-4-4-44---------------2--2-2-2-2-22-2--2-2-2-2-22-|
PM    . . . . ..    . . . . ..    . . . . ..    . . . . ..

Pre Chorus 
Guitar 1 (x2)
e|-------------|
B|-------------|
G|-------------|
D|-0~~-x-2~~-x-|
A|-0~~-x-2~~-x-|
D|-0~~-x-2~~-x-|
|
Guitar 2 (x2)    x2                   x2
e|-----------------|-------------------|
B|-----------------|-------------------|
G|-7/11-11-11-11-x-|-x-9/11-11-11-11-x-|
D|-7-x--x--x--x--x-|-x-9-x--x--x--x--x-|
A|-5/9--9--9--9--x-|-x-7/9--9--9--9--x-|
D|-----------------|-------------------|

Chorus 
Guitar 1 (x4)
e|------------------------|
B|------------------------|
G|------------------------|
D|-4~-x-0~-x-2~-x-0-x-2-x-|
A|-4~-x-0~-x-2~-x-0-x-2-x-|
D|-4~-x-0~-x-2~-x-0-x-2-x-|
|
Guitar 2 (x4)
e|-------------------------|
B|-------------------------|
G|-11~-x-7~-x-9~-x-7-x-9-x-|
D|-11~-x-7~-x-9~-x-7-x-9-x-|
A|-9~~-x-5~-x-7~-x-5-x-7-x-|
D|-------------------------|

Break (Guitar 1 play intro x4)
Guitar 2 (x4)
e|-----------------------------------------------|
B|-----------------------------------------------|
G|-11-11-11-11-11-11-11-11--11-11-11-11-11\99/11-|
D|-x--x--x--x--x--x--x--x---x--x--x--x--x--xx-x--|
A|-9--9--9--9--9--9--9--9---9--9--9--9--9-\77/9--|
D|-----------------------------------------------|

Then repeat Verse - Guitar 1 - Verse x2, then Verse part 2 x2
                     Guitar 2 - Verse x4

Repeat Pre Chorus (x2) (both guitars)
Repeat Chorus (x4) (both guitars)
Repeat Pre Chorus (x2) (both guitars)

Pre Solo (guitar 1 plays intro (x4), Guitar 2 stops)

Solo
Guitar 1 (x4)
e|---------------------|
B|---------------------|
G|------2222-----------|
D|-4444-2222-0000-2222-|
A|-4444-0000-0000-2222-|
D|-4444------0000-2222-|

Guitar 2 plays solo (don't know how to play it though as said previously)

Repeat Chorus (x4) (both guitars)
Repeat Pre Chorus (x2) (both guitars)

Interlude (Guitar 2) (x20)
e|-00-2-0-5-0-5-0-00-2-0-7-0-7-0-|
B|-------------------------------|
G|-------------------------------|
D|-------------------------------|
A|-------------------------------|
D|-------------------------------|

No Guitar 1 in interlude until the fifth time Guitar 2 repeats (x10) (clean), then play (x5) (distortion)
e|-------------|
B|-------------|
G|----2~-------|
D|-4~-2~-0~-2~-|
A|-4~-0~-0~-2~-|
D|-4~----0~-2~-|

Then play verse (both guitars) x1

End on
e|---|
B|---|
G|---|
D|-4-|
A|-4-|
D|-4-|
            
Submit corrections


        Everyday Combat lessons Hard to play? Try these video lessons and learn fast Everyday Combat lessons
        
↑ Back to top | Tablatures and chords for acoustic guitar and electric guitar, ukulele, drums are parodies/interpretations of the original songs. You may use it for private study, scholarship, research or language learning purposes only