» » »

Lostprophets - Everyday Combat Tabs

Artists:  A B C D E F G H I J K L M N O P Q R S T U V W X Y Z # 

Everyday Combat Tabs

(ver. 1) Click to play this song!
Lostprophets
 Rating:
4/5 (4 votes)

 Everyday Combat lessons Tabs too difficult? Try these video lessons and learn fast
 
                LostProphets - Everyday Combat

Drop D

Intro

|------------------------------------------|
|------------------------------------------|
|------------------------------------------|
|------------------------------------------|
|------2---2-4-2-------2-----2-------------|
|--4-4---4-------4-0-0---0-2--2------------|


Verse

|-----------------------------------------------------------------------|
|-----------------------------------------------------------------------|
|------11-11-11-11-------11-11-11-11------9/11-11-11-----9/11-11-11-----|
|--4-----------------7----------------2---------------2-----------------|
|--4---9--9--9--9----7---9--9--9--9---2---7/9--9--9---2--7/9--9--9------|
|--4-----------------7----------------2---------------2-----------------|


Pre Chorus

|---------------------------------------------------------------------|
|---------------------------------------------------------------------|
|-------11----11-----11----11-------11----11----11----11--------------|
|--0-0-----0------0-----0------2-2-----2-----2-----2------------------|    X 2
|--0-0--9--0--9---0--9--0--9---2-2--9--2--9--2--9--2--9---------------|
|--0-0-----0------0-----0------2-2-----2-----2-----2------------------|


Corus

|---------------------------------------------------------------------|
|-------3--------------------3----------------------------------------|
|-------2--------------------2----------------------------------------|
|--4----0----2----7--6--4----0----2----7--6---------------------------|
|--4----0----2----7--6--4----0----2----7--6---------------------------|
|--4----0----2----7--6--4----0----2----7--6---------------------------|

|---------------------------------------------------------------------|
|---------------------------------------------------------------------|
|---------------------------------------------------------------------|
|--4--4-4-4-4-4-4--7--7-7-7-7-7-7--2--2-2-2-2-2-2--7--7-7--6--6-6-----|   X 2
|--4--4-4-4-4-4-4--7--7-7-7-7-7-7--2--2-2-2-2-2-2--7--7-7--6--6-6-----|
|--4--4-4-4-4-4-4--7--7-7-7-7-7-7--2--2-2-2-2-2-2--7--7-7--6--6-6-----|

End riff

|---h5p0-h5p0------h2--h7p0-h7p0-----h2-------------------------------|
|------------h5-------------------h5----------------------------------|
|---------------------------------------------------------------------|
|---------------------------------------------------------------------|
|---------------------------------------------------------------------|
|---------------------------------------------------------------------|
            
Submit corrections


        Everyday Combat lessons Hard to play? Try these video lessons and learn fast Everyday Combat lessons
        
↑ Back to top | Tablatures and chords for acoustic guitar and electric guitar, ukulele, drums are parodies/interpretations of the original songs. You may use it for private study, scholarship, research or language learning purposes only