» » »

Loretta Lynn - You Ain't Woman Enough (guitar ) Tabs

Artists:  A B C D E F G H I J K L M N O P Q R S T U V W X Y Z # 

You Ain't Woman Enough (guitar ) Tabs

(ver. 2) Click to play this song!
Loretta Lynn
 Rating:
4/5 (4 votes)

 You Ain't Woman Enough (guitar ) lessons Tabs too difficult? Try these video lessons and learn fast
 
                "(3)
Loretta Lynn
You Aint Woman Enough
Guitar 3 Licks
Play along side of Guitar 1 & 2 Tabs




Guitar 3
                                                            
E||------------------|------------------|------------------|
B||------------------|------------------|------------------|
G||------------------|------------------|------------------|
D||------------------|------------------|------------------|
A||------------------|------------------|------------------|
E||------------------|------------------|------------------|


                                                                     
-----------------------|---------------------|----------------------|
-----------------------|---------------------|----------------------|
-----------------------|---------------------|----------------------|
-------------1---------|---------------------|----------------------|
--------3--------------|---------------------|------------1---------|
--4---------------4----|-----------1----0----|-------3---------3----|


                                                                     
---------------------|------------------------|---------------------|
---------------------|------------------------|---------------------|
---------------------|------------------------|---------------------|
---------------------|------------------------|---------------------|
------------1--------|-----------1------------|---------------------|
-------3-------------|------3----------3------|-----------1----3----|


                                                                        
--------------------------|-----------------------|--------------------|
--------------------------|-----------------------|--------------------|
--------------------------|-----------------------|--------------------|
-------------1----3-------|-------------1---------|--------------------|
--------3-----------------|-------3----------3----|--------------------|
--4-----------------------|--4--------------------|-----------1--------|


                                                                 
--------------------|---------------------|---------------------|
--------------------|---------------------|---------------------|
--------------------|---------------------|---------------------|
--------------------|---------------------|---------------------|
--------------------|---------------------|------------1--------|
-----------1--------|-----------1----0----|-------3-------------|


                                                                           
--------------------------|-----------------------|-----------------------|
--------------------------|-----------------------|-----------------------|
--------------------------|-----------------------|-----------------------|
--1-----------------------|------------0-----1----|-------------1---------|
-------1------------0-----|--1----3---------------|--------3---------3----|
----------3----4----------|-----------------------|--4--------------------|


                                                                    
-----------------------|----------------------|--------------------|
-----------------------|----------------------|--------------------|
-----------------------|----------------------|--------------------|
-------------1---------|------------1---------|--------------------|
--------3--------------|-------3--------------|--------------------|
--4---------------4----|--4--------------4----|----------1-------0-|


                                                                        
-------------------------|----------------------|----------------------|
-------------------------|----------------------|----------------------|
-------------------------|----------------------|----------------------|
-------------------------|----------------------|----------------------|
------------1----3-------|------------1---------|----------------------|
-------3-----------------|------3----------3----|----------1-----------|


                                                                 
-------------------|----------------------|---------------------|
-------------------|----------------------|---------------------|
-------------------|----------------------|---------------------|
-------------------|----------------------|---------------------|
-------------------|------------1---------|------------1--------|
-------------------|-------3---------3----|-------3-------------|


                                                                            
--------------------------|-----------------------|------------------------|
--------------------------|-----------------------|------------------------|
--------------------------|-----------------------|------------------------|
------------------0-------|-----------------------|------------------------|
--------0----3------------|-------0-----3----0----|------------------------|
--1-----------------------|--1--------------------|-----------1----3-------|


                                                                         
--------------------|-----------------------|---------------------------|
--------------------|-----------------------|---------------------------|
--------------------|-----------------------|---------------------------|
--------------------|-----------------------|---------------------------|
--------------------|------------1----3-----|-------------1----3----1---|
-----------1--------|-------3---------------|-------3-------------------|


                                                                           
--------------------------|-----------------------|-----------------------|
--------------------------|-----------------------|-----------------------|
--------------------------|-----------------------|-----------------------|
-------------1----3-------|-------------1---------|-------------1---------|
--------3-----------------|-------3----------3----|--------3--------------|
--4-----------------------|--4--------------------|--4---------------4----|


                                                                  
--------------------|----------------------|---------------------|
--------------------|----------------------|---------------------|
--------------------|----------------------|---------------------|
--------------------|----------------------|---------------------|
--------------------|------------1---------|------------1--------|
-----------1--------|-------3---------3----|-------3-------------|


                                                                           
--------------------------|-----------------------|-----------------------|
--------------------------|-----------------------|-----------------------|
--------------------------|-----------------------|-----------------------|
--1-----------------------|------------0-----1----|-------------1---------|
-------1------------0-----|--1----3---------------|--------3---------3----|
----------3----4----------|-----------------------|--4--------------------|


                                                                      
-----------------------|------------------------|--------------------|
-----------------------|------------------------|--------------------|
-----------------------|------------------------|--------------------|
-------------1---------|------------------------|--------------------|
--------3--------------|------------------------|--------------------|
--4---------------4----|-----------1----3-------|-----------1--------|


                                                                    
--------------------|---------------------|------------------------|
--------------------|---------------------|------------------------|
--------------------|-------------------
"            
Submit corrections


        You Ain't Woman Enough (guitar ) lessons Hard to play? Try these video lessons and learn fast You Ain't Woman Enough (guitar ) lessons
        
↑ Back to top | Tablatures and chords for acoustic guitar and electric guitar, ukulele, drums are parodies/interpretations of the original songs. You may use it for private study, scholarship, research or language learning purposes only