» » »

Loretta Lynn - You Ain't Woman Enough (guitar ) Tabs

Artists:  A B C D E F G H I J K L M N O P Q R S T U V W X Y Z # 

You Ain't Woman Enough (guitar ) Tabs

(ver. 3) Click to play this song!
Loretta Lynn
 Rating:
4/5 (4 votes)

 You Ain't Woman Enough (guitar ) lessons Tabs too difficult? Try these video lessons and learn fast
 
                "(1)
Loretta Lynn
You Aint Woman Enough

Basic Strumming Pattern
Ive also Tabbed Guitar 2 and 3, and Also Bass.
It will be submitted.



Guitar 1
--4-------4----4-------4----|---------------------------|
--4-------4----4-------4----|---------------------------|
--5-------5----5-------5----|--3-------3---3-------3----|
----------------------------|--6-------6---6-------6----|
----------------------------|--8-------8---8-------8----|
-------4----------4--4------|-------6-------------------|


                                                                                
--------------------------|-------------------------|--------------------------|
-------4----4-----4----4--|--------4---4-------4----|------4-------------------|
-------3----3-----3----3--|--------3---3-------3----|---------3----0-----------|
-------5----5-----5----5--|--------5---5-------5----|-----------------------1--|
--------------------------|-------------------------|--------------------------|
--------------------------|-------------------------|--------------------------|


                                                                
-------------------------------|---------------4------------4--|
-------------------------------|----------4------------4-------|
--0-------0-------0-------3----|-------5------------5----------|
-------1-------1-------1-------|-------------------------------|
-------------------------------|-------------------------------|
-------------------------------|--4----------------------------|


                                                           
--------------4------------|------------------------------|
---------4------------4----|------------------------------|
------5------------5-------|--------3-------3-------3---3-|
---------------------------|--------6-------6-------6---6-|
---------------------------|--------8-------8-------8---8-|
---------------------------|-----6-------6-------6--------|


                                                              
--------------------------------|----------------------------|
--------------------------------|----------------------------|
--------3-------3------------3--|--------3------------1----3-|
--------6-------6-------3----6--|-------------3-------3------|
--------8-------8---------------|------------------1---------|
-----6-------6-------6----------|-----6----------------------|


                                                        
-------------------------|-----------------------------|
-------------------4-----|-----4-----------------------|
-------0----3------------|--------3----0--------0----3-|
-------------------------|-------------------1---------|
-------------------------|-----------------------------|
-------------------------|-----------------------------|


                                                         
---------------------------|-------------4--------------|
---------------------------|--------1------------1----4-|
-------0----3---------3----|-----1------------1---------|
-----------------1---------|----------------------------|
---------------------------|----------------------------|
-------------------------4-|----------------------------|


                                                          
-------------4--------------|-------------4--------------|
--------1------------1------|-----1--4------------4------|
-----1------------1---------|---------------------5------|
----------------------------|--------------------------6-|
----------------------------|----------------------------|
--------------------------4-|------------------4---------|


                                                         
---------------------------|----------------------------|
---------------------------|----------------------------|
-------------1-------3-----|--------0----3------0----3--|
--------3------------------|----------------------------|
------------------1--------|----------------------------|
-----6---------------------|----------------------------|


                                                           
-------------------------|--------------------------------|
----------4--------------|--------------------------------|
-----------------0----3--|---3-------3----3-------3----3--|
-------------------------|---6-------6----6-------6----6--|
-------------------------|---8-------8----8-------8----8--|
-------------------------|--------6------------6----------|


                                                                                
--------------------------|---------------------------|------------------------|
--------------------------|--------4----4------4---4--|-------4----4------4----|
---------3---3-------3----|--------3----3------3---3--|-------3----3------3----|
---------6---6-------6----|--------5----5------5---5--|-------5----5------5----|
-------5-8---8-------8----|---------------------------|------------------------|
---6--------------6-------|---------------------------|------------------------|


                                                              
--1-------1----1-------1----1--|---------1---1--1-------1----|
--1-------1----1-------1----1--|---------1---1--1-------1----|
--2-------2----2-------2----2--|---------2---2--2-------2----|
-------------------------------|-----------------------------|
-------------------------------|-----------------------------|
-------1------------1----------|------1--------------1-------|


                                                              
-------------------------------|-----------------------------|
-------------------------------|-----------------------------|
--3-------3----3-------3----3--|---------3---3--3-------3----|
--6-------6----6-------6----6--|---------6---6--6-------6----|
--8----1--8----8-------8----8--|---------8---8--8-------8----|
--------------------6----------|------6--------------6-------|


                                                           
-------------------------------|--------------------------|
------4------------------------|--------------------------|
---------3----0--------0----3--|--------0----3---------3--|
--------------------1----------|------------------1-------|
-------------------------------|--------------------------|
-------------------------------|--------------------------|


                                                                   
---------4-------4-------4---4--|---------4-------4------------4--|
---------4-------4-------4---4--|---------4-------4------------4--|
---------5-------5-------5---5--|---------5-------5-------5-------|
--------------------------------|---------------------------------|
--------------------------------|---------------------------------|
------4-------4-------4---------|------4-------4-------4----------|


                                                        
---------------4------------|--------------------------|
----------4------------4----|--------------------------|
-------5---------------5----|----------1----3----------|
----------------------------|-------3------------------|
----------------------------|--------------------------|
--4-----------------4-------|--6-----------------------|


                                                              
---------------------------|---------------------------------|
-------4-------------------|---------------------------------|
----------3----0-----------|---0-------0-------0-------3-----|
------------------------1--|--------1-------1-------1--------|
---------------------------|---------------------------------|
---------------------------|---------------------------------|


                                                            
-------------------------------|---------------------------|
---------------4------------4--|--------------4-----------
"            
Submit corrections


        You Ain't Woman Enough (guitar ) lessons Hard to play? Try these video lessons and learn fast You Ain't Woman Enough (guitar ) lessons
        
↑ Back to top | Tablatures and chords for acoustic guitar and electric guitar, ukulele, drums are parodies/interpretations of the original songs. You may use it for private study, scholarship, research or language learning purposes only