» » »

Linkin Park - No More Sorrow Bass

Artists:  A B C D E F G H I J K L M N O P Q R S T U V W X Y Z # 

No More Sorrow Bass

(ver. 1) Click to play this song!
Linkin Park
 Rating:
4/5 (4 votes)


 No More Sorrow lessons Tabs too difficult? Try these video lessons and learn fast
 
                Linkin Park

No More Sorrow

5-String Bass

Intro
G --------|
D --------|
A --------| x4
E --------|
B 3333333-|

G ----------------------|
D ----------------------|
A ----------------------| x4
E ----------------------|
B 3333333-3333-333333333|

G --------------------------|
D --------------------------|
A --------------------------| x3
E 7-77-7-5-55-5-------------|
B --------------333333333333|

G ----------------------------|
D ----------------------------|
A ----------------------------|
E --------------6-66-6--------|
B 7-77-7-7-77-7--------3-33-3-|

Vers
G ----------------------|
D ----------------------|
A ----------------------| x7
E ----------------------|
B 3333333-3333-333333333|

G ----------------------|
D ----------------------|
A ----------------------|
E ----------------------|
B 3333333-3333-3333-----|

Refrain
G --------------------------|
D --------------------------|
A --------------------------| x3
E 7-77-7-5-55-5-------------|
B --------------333333333333|

G ----------------------------|
D ----------------------------|
A ----------------------------|
E --------------6-66-6--------|
B 7-77-7-7-77-7--------3-33-3-|

Vers
G ----------------------|
D ----------------------|
A ----------------------| x6
E ----------------------|
B 3333333-3333-333333333|

G ----------------------|
D ----------------------|
A ----------------------|
E ----------------------|
B 3333333-3333-3333-----|

Refrain

Bridge
G ----------------|
D ----------------|
A ----------------| x5
E ----------------|
B 3-4-3-6-5-4-3-7-|

G --------|
D --------|
A --------| x6
E --------|
B 3333333-|

Refrain x2

Outro
G ----------------------|
D ----------------------|
A ----------------------|
E ----------------------|
B 3333333-3333-333333333|

G ----------------------|
D ----------------------|
A ----------------------|
E ----------------------|
B 3333333-3333-3333-----|
            
Submit corrections



        No More Sorrow lessons Hard to play? Try these video lessons and learn fast No More Sorrow lessons
        
↑ Back to top | Tablatures and chords for acoustic guitar and electric guitar, ukulele, drums are parodies/interpretations of the original songs. You may use it for private study, scholarship, research or language learning purposes only