» » »

Linkin Park - A Place For My Head Tabs

Artists:  A B C D E F G H I J K L M N O P Q R S T U V W X Y Z # 

A Place For My Head Tabs

(ver. 2) Click to play this song!
Linkin Park
 Rating:
4/5 (18 votes)


 A Place For My Head lessons Tabs too difficult? Try these video lessons and learn fast
 
                Artist.: Linkin Park
Song.: A Place For My Head
Tuning.: Drop D

My first tab...comment on what's wrong so I can get better...also rate please

Intro
E |-------------------------------------
B |-------------------------------------
G |-------------------------------------
D |-----888-9-8-6-----------------------   
A |-66-------------99-777777-9----------
D |-------------------------------------
 Repeat as needed. The '7' part changes a little.

Verse[Distorted]
E |-------------------------------------
B |-------------------------------------
G |-------------------------------------
D |------88-9-8-6-----------------------   
A |-66-------------99-7777-9------------
D |-------------------------------------

Chorus
E |-------------------------------------
B |-------------------------------------
G |-------------------------------------
D |----1-1-888--9-8-6-44-222222-4-------   Before 2nd chorus, 12/1 changes to 1/12
A |----1-1-888--9-8-6-44-222222-4-------
D |-12\1-1-888--9-8-6-44-222222-4-------
             |---Repeat as needed-------|

After 1st Chorus
E |-------------------------------------
B |-------------------------------------
G |-------------------------------------
D |-----888-9-8-6--------------------- Then continue with distorted verse.   
A |-66---------------------------------
D |-------------------------------------

<Chorus>
Bridge(No guitar)
<Chorus>

After the chorus after the Bridge
E |--------------------------------
B |--------------------------------
G |--------------------------------
D |-------------------------------- 4x    
A |--------------------------------
D |1111111111111-4-----------------
        "SHUT...UP"
E |----------------------------------
B |----------------------------------
G |----------------------------------
D |1111111111111-4------------------4x   
A |1111111111111-4------------------
D |1111111111111-4------------------
            
Submit corrections



        A Place For My Head lessons Hard to play? Try these video lessons and learn fast A Place For My Head lessons
        
↑ Back to top | Tablatures and chords for acoustic guitar and electric guitar, ukulele, drums are parodies/interpretations of the original songs. You may use it for private study, scholarship, research or language learning purposes only