» » »

Lincoln Brewster - You Are The One Tabs

Artists:  A B C D E F G H I J K L M N O P Q R S T U V W X Y Z # 

You Are The One Tabs

(ver. 1) Click to play this song!
Lincoln Brewster
 Rating:
4/5 (4 votes)


 You Are The One lessons Tabs too difficult? Try these video lessons and learn fast
 
                --------------------------------------------------------------
"You Are The One" solos - Lincoln Brewster
--------------------------------------------------------------


Tuning: standard



SOLO 1

e----------------------12-------------------------------------|
B-------10----------------------------------------------------|
G--11b------11br---p9------11b---9~~~~~~----------9--9--------| 
D------------------------------------------11--9--------11--9-| 
A-------------------------------------------------------------|
E-------------------------------------------------------------|


e-------------------------------------------------------------|
B------------------------------------------9h10-9-------------|
G---------------------------------------9------------9-----9--| 
D--------------9---------------------9------------9-----9-----| 
A-------9--11-----9-----------9--11---------------------------|
E--------------------12---------------------------------------|


e-----------------------14--16-----19--19------16hbr----------|
B--10--9------------17---------------------------------17br---|
G---------------16--------------------------------------------| 
D-------------------------------------------------------------| 
A-------------------------------------------------------------|
E-------------------------------------------------------------|


e-------------12-------11-------9-----------------9-12----9---|
B--17----------------------------------12--------------12---9-|
G----------9--------9--------9------9-------------------------| 
D-------------------------------------------------------------| 
A-------------------------------------------------------------|
E-------------------------------------------------------------|


e-------------------------------------------------------------|
B-12----9-----------------------------------------------------|
G----11---9-11----9-------------------------------------------| 
D--------------11---9-11----9---------------------------------| 
A------------------------11---9-11----------------------------|
E----------------------------------12-------------------------|



SOLO 2

e----19-----17--17------16--16--------------------------------|
B----------------------------------19--19------17-------------|
G-------------------------------------------------------------| Repeat 2X
D-------------------------------------------------------------| 
A-------------------------------------------------------------|
E-------------------------------------------------------------|


e--11hbr--------------------------------------------------12--|
B--------12----9-12---------------------------------12-14-----|
G-----------11------11-9-8-9-8------9-11----9-11-13-----------|
D------------------------------9-11------11-------------------|
A-------------------------------------------------------------|
E-------------------------------------------------------------|


e----------19-----17--17------16--16--------------------------|
B---12-14--------------------------------19--19------17-------|
G-------------------------------------------------------------| 
D-------------------------------------------------------------| 
A-------------------------------------------------------------|
E-------------------------------------------------------------|


e-16-------------16-------------16-------------16-------------|
B--------17-------------17-------------17------------17-------|
G------------16-------------16-------------16------------16---| 
D-------------------------------------------------------------| 
A-------------------------------------------------------------|
E-------------------------------------------------------------|


e---17-----16-----------19-----17--17------16--16-------------|
B--------------17------------------------------------19--19---|
G------------------16-----------------------------------------| 
D-------------------------------------------------------------| 
A-------------------------------------------------------------|
E-------------------------------------------------------------|


e-------------------------------------------------------------|
B---17--19~~~~~-----------------------------------------------|
G-------------------------------------------------------------| 
D-------------------------------------------------------------| 
A-------------------------------------------------------------|
E-------------------------------------------------------------|





| /  slide up
| \  slide down
| h  hammer-on
| p  pull-off
| ~  vibrato
| +  harmonic
| x  mute note
| b  whole step bend
| hb half step bend
| br bend and release
            
Submit corrections



        You Are The One lessons Hard to play? Try these video lessons and learn fast You Are The One lessons
        
↑ Back to top | Tablatures and chords for acoustic guitar and electric guitar, ukulele, drums are parodies/interpretations of the original songs. You may use it for private study, scholarship, research or language learning purposes only