» » »

Lincoln Brewster - You Are Good Tabs

Artists:  A B C D E F G H I J K L M N O P Q R S T U V W X Y Z # 

You Are Good Tabs

(ver. 1) Click to play this song!
Lincoln Brewster
 Rating:
4/5 (4 votes)


 You Are Good lessons Tabs too difficult? Try these video lessons and learn fast
 
                E-------------------------------------------------8-6--|
A---3-3--6-6--8-----------------10---10-9-8-6-8-6------|
D---5-5--8-8--10------10-8-10-8----8-------------------|
G---5-5--8-8--10---8b9---------------------------------|
B------------------8b9---------------------------------|
E------------------------------------------------------|
(0:29 seconds)

	Bend up about a half a step


E----------------------------------------------------|
A---3-3--1-1--3------------------------------10-8-6--|
D---5-5--3-3--2-------------10-8-8-10---10-8---------|
G---5-5--3-3--0-------10-8------------8b9------------|
B-------------1--11-8--------------------------------|
E-------------0--------------------------------------|
(0:32 seconds)


E-------------------------------------------------11-10-8-6-----------------------------------|
A---3-3--6-6--8------------------------------10-8---------------------------------------------|
D---5-5--8-8--10----7-8-10------------10-8-7--------------------------------------------------|
G---5-5--8-8--10-----------7-8-10-8-7---------------------------------------------------------|
B---------------------------------------------------------------------------------------------|
E---------------------------------------------------------------------------------------------|
(0:37 seconds)

E---------------------------------------------------------------------------------------------|
A---3-3--1-1--3------3-3----------------------------------------------------------------------|
D---5-5--3-3--2------1-1----------------------------------------------------------------------|
G---5-5--3-3--0------1-1----------------------------------------------------------------------|
B-------------1------1-1----------------------------------------------------------------------|
E-------------0-------------------------------------------------------------------------------|
(0:40 seconds)



Since I've been asked to tab it out, I did. Hopefully it's helpful.
            
Submit corrections



        You Are Good lessons Hard to play? Try these video lessons and learn fast You Are Good lessons
        
↑ Back to top | Tablatures and chords for acoustic guitar and electric guitar, ukulele, drums are parodies/interpretations of the original songs. You may use it for private study, scholarship, research or language learning purposes only