» » »

Lightning Bolt - Colossus Bass

Artists:  A B C D E F G H I J K L M N O P Q R S T U V W X Y Z # 

Colossus Bass

(ver. 1) Click to play this song!
Lightning Bolt
 Rating:
4/5 (4 votes)


 Colossus lessons Tabs too difficult? Try these video lessons and learn fast
 
                Thought I should take it upon myself to tab this great song, timing probably isn't 
correct but it shouldn't be too hard to figure out

Riff sequence A

G|-----------------------------------------------------------|
D|-----------------------------------------------------------|
A|-----------------------------------------------------------|
E|-3-------3--------3---10---8---6--------6-------6-6-8---10-|

G|-----------------------------------------------------------|
D|-----------------------------------------------------------|
A|---------------------------------------------------5-6-5---|
E|-3-------3--------3---8---8---6--------6-------6-6-------6-|

G|-----------------------------------------------------------|
D|-----------------------------------------------------------|
A|-----------------------------------------------------------|
E|-3-------3--------3---10---8---6--------6-------6-6-8---10-|

G|-----------------------------------------------------------|
D|-----------------------------------------------------------|
A|-----------------------------------------------------6-----|
E|-3-------3--------3-3-8---8---6--------6-------6-6-6-------|

G|-----------------------------------------------------------|
D|-----------------------------------------------------------|
A|-----------------------------------------------------------|
E|-3-------3--------3-3-10---8---6--------6-------6-6-8---10-|

G|-----------------------------------------------------------|
D|----------------------------------------6-6-6---8---10-8-10|
A|-----------------------------------------------------------|
E|-3-------3--------3-3-8---8---6-------6--------------------|

After this, distortion kicks in, but the cycle repeats throughout the whole song, with 
slight variations on the number of notes played until roughly ~3:00;

Riff B

G|--------------------|
D|-10-----8-10-8-10-8-|
A|--------------------|
E|--------------------|

This continues for about 30 seconds before the riff is simplified even more, when 
additional effects are brought in;

Riff C

G|----------------|
D|-10-----10-8-10-|
A|----------------|
E|----------------|

This also goes on for about a minute before riff B and riff C begin alternating, with 
riff C starting whenever the additional effects are applied

And finally, to finish the song off;

Riff D

G|------------|
D|-10-10-10-8-|
A|------------|
E|------------|

Have fun, and play loud! This is the first tab that I have made, so please tell me if i 
have made any errors!
            
Submit corrections



        Colossus lessons Hard to play? Try these video lessons and learn fast Colossus lessons
        
↑ Back to top | Tablatures and chords for acoustic guitar and electric guitar, ukulele, drums are parodies/interpretations of the original songs. You may use it for private study, scholarship, research or language learning purposes only