» » »

Liam Lynch - United States Of Whatever Tabs

Artists:  A B C D E F G H I J K L M N O P Q R S T U V W X Y Z # 

United States Of Whatever Tabs

(ver. 2) Click to play this song!
Liam Lynch
 Rating:
4/5 (13 votes)

 United States Of Whatever lessons Tabs too difficult? Try these video lessons and learn fast
 
                This is my 1st but I’m dam sure its correct. It’s the tune Whatever don’t ask me who its by but anyway, here you go:									

The United States of Whatever.

After the lyrics on their own play in timing by listening to the tune: 
e------------------------------
b------------------------------
g------------------------------
d-7-7-7-7 7-7-00-7-7-7-7-7-7-00
a-7-7-7-7-7-7-00-7-7-7-7-7-7-00
e-5-5-5-5-5-5-00-5-5-5-5-5-5-00

e-----------------
b----------------
g-----------------
d-7-7-7-7-7-7-00-7
a-7-7-7-7-7-7-00-7
e-5-5-5-5-5-5-00-5
You play this a few times. Listen to the tune!

The other part. When the singing commences is:

e--------------------------------
b--------------------------------
g--------------------------------
d-7-7-7-7-7-7-00-7-7-7-7-7-7-00--
a-7-7-7-7-7-7-00-7-7-7-7-7-7-00--
e-5-5-5-5-5-5-00-5-5-5-5-5-5-00--

e-7-7-7-7-7-7-7-7--5-5-5-5-5-5-5-5-
g-9-9-9-9-9 9-9-9--7-7-7-7-7-7-7-7-
d-9-9-9-9-9-9-9-9--7-7-7-7-7-7-7-7
a-7-7-7-7-7-7-7-7--5-5-5-5-5-5-5-5-
e-7-7-7-7-7-7-7-7--5-5-5-5-5-5-5-5-


e------------------------------
b------------------------------
g------------------------------
d-7-7-7-7 7-7-00-7-7-7-7-7-7-00
a-7-7-7-7-7-7-00-7-7-7-7-7-7-00
e-5-5-5-5-5-5-00-5-5-5-5-5-5-00

e-----------------
b----------------
g-----------------
d-7-7-7-7-7-7-00-7
a-7-7-7-7-7-7-00-7
e-5-5-5-5-5-5-00-5

This should be played quickly and on distortion.
If you don’t think its correct look carefully and improvise, as I’m sure it is!
            
Submit corrections


        United States Of Whatever lessons Hard to play? Try these video lessons and learn fast United States Of Whatever lessons
        
↑ Back to top | Tablatures and chords for acoustic guitar and electric guitar, ukulele, drums are parodies/interpretations of the original songs. You may use it for private study, scholarship, research or language learning purposes only