» » »

Liam Lynch - My United States Tabs

Artists:  A B C D E F G H I J K L M N O P Q R S T U V W X Y Z # 

My United States Tabs

(ver. 2) Click to play this song!
Liam Lynch
 Rating:
4/5 (4 votes)

 My United States lessons Tabs too difficult? Try these video lessons and learn fast
 
                opening
repeat until first verse
e---------------------------------------------------------------------------------------------------------------
b---------------------------------------------------------------------------------------------------------------
g---------------------------------------------------------------------------------------------------------------
d---------------------------------------------------------------------------------------------------------------
a---2--5--6--7--7--7--7--7---------------------------------------------------------------------------------
e---0--3--4--5--5--5--5--5---------------------------------------------------------------------------------

Chorus
e---------------------------------------------------------------------------------------------------------------
b---------------------------------------------------------------------------------------------------------------
g---------------------------------------------------------------------------------------------------------------
d---------------------------------------------------------------------------------------------------------------
a--5--5--5--5--5--5--5--5--2--2--2--2--2--2--2--2----------------------------------------------------
e--3--3--3--3--3--3--3--3--0--0--0--0--0--0--0--0----------------------------------------------------

then repeat chorus
            
Submit corrections


        My United States lessons Hard to play? Try these video lessons and learn fast My United States lessons
        
↑ Back to top | Tablatures and chords for acoustic guitar and electric guitar, ukulele, drums are parodies/interpretations of the original songs. You may use it for private study, scholarship, research or language learning purposes only