Home » L » Liam Lynch »

Liam Lynch - My United States Tabs

Artists:  A B C D E F G H I J K L M N O P Q R S T U V W X Y Z # 

My United States Tabs

(ver. 1) Click to play this song!
Liam Lynch
 Rating:
4/5 (4 votes)
                My United States Of Whateva
This is my first tab but me and my friend figured it out perfectly just play it with the song to check
E-------------------
B-------------------
G-------------------
D-------------------
A---0-5-6-7-7-7-7-7-
E---0-3-4-5-5-5-5-5-
Repeat over and over with the song

The Chorus is
E------------------------------------------------------------------
B------------------------------------------------------------------
G---------------------------------------------(8)------------------
D-----------------------------------------5-5-5-5-5-5-5-5----(5)---
A-----5-6-7-7-7-7-7---5-6-7-7-7-7-7---5-6-3-3-3-3-3-3-3-3-5-5-5-5-5
E---0-3-4-5-5-5-5-5-0-3-4-5-5-5-5-5-0-3-4-----------------3-3-3-3-3

There you go it is so basic, so rock on my brothers and sisters! I swear its right try it with the song... if you can play it fast enough MWHAHAHAHAHAHA!
            
Submit corrections

↑ Back to top | Tablatures and chords for acoustic guitar and electric guitar, ukulele, drums are parodies/interpretations of the original songs. You may use it for private study, scholarship, research or language learning purposes only