» » »

Less Than Jake - All My Best Friends Are Metal Heads Tabs

Artists:  A B C D E F G H I J K L M N O P Q R S T U V W X Y Z # 

All My Best Friends Are Metal Heads Tabs

(ver. 3) Click to play this song!
Less Than Jake
 Rating:
4/5 (4 votes)

 All My Best Friends Are Metal Heads lessons Tabs too difficult? Try these video lessons and learn fast
 
                SHould be right not sure about slides though
x=palm mute
/=slide

Intro

E|---------------------------------------------------------------|
B|--9--8-9-9-6-6-6/8----9-9-9-9-9-9-9--9-9-9-9/13-13-13/8-8------|
G|--9--9-9-9-7-7-7/9----9-9-9-9-9-9-9--7-7-7-7/11-11-11/9-9------|
D|--7-------------------7-7-7-7-7-7-7----------------------------|
A|---------------------------------------------------------------|
E|---------------------------------------------------------------|
                          xxxxxxxxxxx
Intro (cont)
E|---------------------------------------------------------------------------|
B|--9--8-9-9-6-6-6/8----9---13-13-13-13/11/13/9-9-9-9-9-9-9------------------|
G|--9--9-9-9-7-7-7/9----9---11-11-11-11/09/11/7-7-7-7-7-7-7------------------|
D|--7-------------------7---11-11-11-11/09/11/-------------------------------|
A|---------------------------------------------------------------------------|
E|---------------------------------------------------------------------------|

Verse bit 1 Ska up/down strokes (x3)
E|-x-7-x-7-x-7-x-7-x-5-x-5-x-7-x-7------------------------------------|
B|-x-9-x-9-x-9-x-9-x-5-x-5-x-7-x-7------------------------------------|
G|-x-9-x-9-x-9-x-9-x-6-x-6-x-8-x-8------------------------------------|
D|-x-7-x-7-x-7-x-7-x-7-x-7-x-9-x-9------------------------------------|
A|-x-7-x-7-x-7-x-7-x-7-x-7-x-9-x-9------------------------------------|
E|-x-7-x-7-x-7-x-7-x-5-x-5-x-7-x-7------------------------------------|


Verse bit 2 Distort it (x1)
E|--------------------------------------------------------------------|
B|--------------------------------------------------------------------|
G|-9-9-9-9-9----9-9-x-x-----------------------------------------------|
D|-9-9-9-9-9----9-9-x-x-7-7/-9----------------------------------------|
A|-7-7-7-7-7----7-7-x-x-7-7/-9----------------------------------------|
E|----------------------5-5/-7----------------------------------------|

Verse Part 3 Ska up/down strokes (x3)
E|-x-5-x-5-x-5-x-5-x-7-x-7-x-7-x-7-x----------------------------------|
B|-x-5-x-5-x-5-x-5-x-9-x-9-x-9-x-9-x----------------------------------|
G|-x-6-x-6-x-6-x-6-x-9-x-9-x-9-x-9-x----------------------------------|
D|-x-7-x-7-x-7-x-7-x-7-x-7-x-7-x-7-x----------------------------------|
A|-x-7-x-7-x-7-x-7-x-7-x-7-x-7-x-7-x----------------------------------|
E|-x-5-x-5-x-5-x-5-x-7-x-7-x-7-x-7-x----------------------------------|

Verse bit 4x1
E|--------------------------------------------------------------------|
B|--------------------------------------------------------------------|
G|--------------------------------------------------------------------|
D|-9-----9------9------9----------------------------------------------|
A|-9-----9------9------9----------------------------------------------|
E|-7-----7------7------7----------------------------------------------|


Chorus Distort it  (x3)
E|--------------------------------------------------------------------|
B|--------------------------------------------------------------------|
G|--------------------------------------------------------------------|
D|-2-2-/-7---7-/-9-9-9-9-9--------------------------------------------|
A|-2-2-/-7---7-/-9-9-9-9-9--------------------------------------------|
E|-0-0-/-5---5-/-7-7-7-7-7--------------------------------------------|
x1
Chorus cont.
e|--------------------------------------------------------------------|
B|--------------------------------------------------------------------|
G|--------------------------------------------------------------------|
D|-7-----------7----------7----------7--------------------------------|
A|-7-----------7----------7----------7--------------------------------|
E|-5-----------5----------5----------5--------------------------------|
            
Submit corrections


        All My Best Friends Are Metal Heads lessons Hard to play? Try these video lessons and learn fast All My Best Friends Are Metal Heads lessons
        
↑ Back to top | Tablatures and chords for acoustic guitar and electric guitar, ukulele, drums are parodies/interpretations of the original songs. You may use it for private study, scholarship, research or language learning purposes only