» » »

Leonard Cohen - Hallelujah Bass

Artists:  A B C D E F G H I J K L M N O P Q R S T U V W X Y Z # 

Hallelujah Bass

(ver. 1) Click to play this song!
Leonard Cohen
 Rating:
4/5 (4 votes)


 Hallelujah lessons Tabs too difficult? Try these video lessons and learn fast
 
                Intro:

G---------------|
D---------------|
A--3------------|
E---------3-----|

Part 1:

G-------------------------------------------------------------|
D-------------------------------------------------------------|
A-2-3-----2-0-----3-----2-0-------------------3-----2-0-------|
E-------------------------------3-1-----3---------------3-----|

Part 2:

G----------------0-----2-----0-------0---------------2-----2S|
D------------3------------------3-----------3-2-------------S|
A-0-2-3-----------------------------------------------------S|
E-----------------------------------------------------------S|

Part 3: 

G----------------2-----0-2-----------------------------------|
D-3-----2-3--------------------3-----2-3-----2-0-------------|
A------------------------------------------------3----------0|
E------------------------------------------------------3-----|

Part 4: 

G----------------2-----0-2-------------------------------|
D-3-----2-3--------------------3-----2-3-----2-----0-----|
A--------------------------------------------------------|
E--------------------------------------------------------|

Part 5

G--S-----2--------------------------------------|
D-3S------------3-----3-----2-3-----2-----0-----|
A--S--------------------------------------------|
E--S--------------------------------------------|


S= stop/silent after previous note

Intro
(Part 1 + Part 2 + Part 3) Repeat 3x
Part 1 + Part 2
Part 4
Part 5
(Part 4) Repeat to end
            
Submit corrections



        Hallelujah lessons Hard to play? Try these video lessons and learn fast Hallelujah lessons
        
↑ Back to top | Tablatures and chords for acoustic guitar and electric guitar, ukulele, drums are parodies/interpretations of the original songs. You may use it for private study, scholarship, research or language learning purposes only