» » »

Led Zeppelin - When The Levee Breaks Standard Tuning Bass

Artists:  A B C D E F G H I J K L M N O P Q R S T U V W X Y Z # 

When The Levee Breaks Standard Tuning Bass

(ver. 1) Click to play this song!
Led Zeppelin
 Rating:
4/5 (4 votes)


 When The Levee Breaks Standard Tuning lessons Tabs too difficult? Try these video lessons and learn fast
 
                Tuning:Low to High (EADG)
*Note: I know that the song is orginally in DGCF but 
I was too lazy to downtune so i just re-tabbed to EADG.
It sounds fine but if theres any probs then just e-mail me.*

Intro  (0:07)
G|-----------------------------|
D|--------------------------8--|
A|-11-8-8--8-8-8-11-8-8-8-8----|
E|-----------------------------|

G|--------------------------------|
D|-----------------------------8--|
A|-11-8-8--8-8-8-11-8-8-11-8-8----|
E|--------------------------------|

(0:20, 3:05)
G|-------------------------------------------------------------|
D|----------------------------------------------------------8--|
A|-11-8-8--8-------8--8-8-8-------8--8--8-8-8-11-8-8-11-8-8----|X3
E|-----------11/12----------11/12------------------------------|

G|--------------------------------|
D|-----------------------------8--|
A|-11-8-8--8-8-8-11-8-8-11-8-8----|
E|--------------------------------|

G|-------------------------------------------------------------|
D|----------------------------------------------------------8--|
A|-11-8-8--8-------8--8-8-8-------8--8--8-8-8-11-8-8-11-8-8----|X3
E|-----------11/12----------11/12------------------------------|

G|----------------------------------|
D|-----------------------------8-7--|
A|-11-8-8--8-8-8-11-8-8-11-8-8------|
E|----------------------------------|

(1:08, 3:51)
G|----------------------------------------------------------|
D|----------------------------------------------------------|
A|-11-11-11----------------------11----------11-------------|
E|-----------5-6-6-6-6-8-8-11-11----11-13-11----11-13-8-11--|

G|----------------------------------------------------|
D|----------------------------------------------------|
A|------------------------------11----------11--------|
E|-4-4---3H4-5-6-6-6--5-8-10-11----11-13-11----11-13--|

Verses  (1:25, 4:08)
G|-------------------------------------------------------------|
D|----------------------------------------------------------8--|
A|-11-8-8--8-------8--8-8-8-------8--8--8-8-8-11-8-8-11-8-8----|X3
E|-----------11/12----------11/12------------------------------|

G|--------------------------------|
D|-----------------------------8--|
A|-11-8-8--8-8-8-11-8-8-11-8-8----|
E|--------------------------------|

G|----------------------------------|
D|-----------------------------8-7--|
A|-11-8-8--8-8-8-11-8-8-11-8-8------|
E|----------------------------------|

(2:12, 4:44)
G|----------------------------------------------------------|
D|----------------------------------------------------------|
A|-11-11-11----------------------11----------11-------------|
E|-----------5-6-6-6-6-8-8-11-11----11-13-11----11-13-8-11--|

G|----------------------------------------------------|
D|----------------------------------------------------|
A|------------------------------11----------11--------|
E|-4-4---3H4-5-6-6-6--5-8-10-11----11-13-11----11-13--|

Bridge  (2:26)
G|------------------------------------------------------|
D|------------------------------------------------------|
A|-8~~-----8--8-8------------------------6-8-8-8-8-8-6--|
E|-------------------8-----6--6-6-8---------------------|

G|------------------------------------------15-17-17-17--|
D|------------------------------------------13-15-15-15--|
A|-8--8-8-8--10-10-10-10-10---8--8-8-8--10---------------|
E|------------8--8--8--8--8---6--6-6-6---8---------------|

G|-15-17-17-17-------------------------------15-17-17-17--|
D|-13-15-15-15-------------------------------13-15-15-15--|
A|-------------10-10-10-10-10---8--8-8-8--10--------------|X2
E|--------------8--8--8--8--8---6--6-6-6---8--------------|

G|-15-17-17-17-------------------------------15-17-17~----|
D|-13-15-15-15-------------------------------13-15-15~-13-|
A|-------------10-10-10-10-10---8--8-8-8--10--------------|
E|--------------8--8--8--8--8---6--6-6-6---8--------------|

2nd Bridge  (5:08)
G|---------------------------------------------------------|
D|---------------------------------------------------------|
A|-11-8-8-8-8--8--8--8-8-8--8--8--8-8-8----8--8-8~-8---11--|
E|---------------------------------------------------8-----|

G|---------------------------------------------------------------|
D|---------------------------------------------------------------|
A|-8--8-8-8--8-------------------------------6--8-8-8-6---6---5--|
E|--------------10-8-8-8-8-8--8-6-6--6-6-6-8----------------8----|

G|-15-17-17-17-------------------------------15-17-17-17--|
D|-13-15-15-15-------------------------------13-15-15-15--|
A|-------------10-10-10-10-10---8--8-8-8--10--------------|X4
E|--------------8--8--8--8--8---6--6-6-6---8--------------|

Outro  (5:47)
G|------------------------------------------------------------------|
D|---------------------------------------------------------------8--|
A|-11-8-8-8-8--8-8-11-8-8-8-8--8-8-11-8-8-8-8--8-8-11-8-8-11-8-8----|
E|------------------------------------------------------------------|

G|------------------------------------------------------------|
D|------------------------------------------------------------|
A|---------------------------------------------------------1--|X2
E|-4-1-1-1-1--1-1-4-1-1-1-1---1-4-1-1-1-1--1-1-4-1-1-4-1-1----|

G|------------------------------------------------------------|
D|-----------------------1-1----------------------------------|
A|---------------------------1-----------------------------1--|
E|-4-1-1-1-1--1-1--1-1-1--------1-1-1-1-1--1-1-4-1-1-4-1-1----|

G|---------------------------------------------------------------|
D|--------------------------------------------------------1---1--|
A|----------------------------1-------------------------1---1----|
E|-4-1-1-1-1--1-1-4-1-1-4-1-1----4-1-1-1-1--1-1-4-1-1-1----------|

G|---------------------------------------------------------------|
D|---------------------------------------------------------------|
A|----------------------------1-------------------------0-1-2-3--|
E|-4-1-1-1-1--1-1-4-1-1-4-1-1----4-1-1-1-1--1-1-4-1-1-4----------|

G|---------------------------------------------------------------|
D|---------------------------------------------------------------|
A|----------------------------1---------------------------1-2-3--|
E|-4-1-1-1-1--1-1-4-1-1-4-1-1----4-1-1-1-1--1-1-1-1-1-1-4--------|

G|----------------------------------------------|
D|----------------------------------------------|
A|--------------------------1-------------------|
E|-4-1-1-1-1--1-1-4-1-1-1-1----4-1-1-1--1-1~~~--|

Please rate my tab, Thanks.
            
Submit corrections



        When The Levee Breaks Standard Tuning lessons Hard to play? Try these video lessons and learn fast When The Levee Breaks Standard Tuning lessons
        
↑ Back to top | Tablatures and chords for acoustic guitar and electric guitar, ukulele, drums are parodies/interpretations of the original songs. You may use it for private study, scholarship, research or language learning purposes only