» » »

Led Zeppelin - Rock N Roll Tabs

Artists:  A B C D E F G H I J K L M N O P Q R S T U V W X Y Z # 

Rock N Roll Tabs

(ver. 1) Click to play this song!
Led Zeppelin
 Rating:
4/5 (4 votes)
                A riff
|------------------------|--------------------------|
|------------------------|--------------------------|
|------------------------|--------------------------|
|-2--2-----2--5^2--4-----|-----2--4--2--2--2--4--2--|     repeat 1x
|-0--0--4--0--0----0--3'-|-(3)-0--0--0--0--0--0--0--|
|------------------------|--------------------------|


  D riff
|------------------------|--------------------------|
|------------------------|--------------------------|
|-2--2-----2--5^2--4-----|-----2--4--2--2--2--4--2--|
|-0--0--4--0--0----0--3'-|-(3)-0--0--0--0--0--0--0--|
|------------------------|--------------------------|
|------------------------|--------------------------|

 A riff
|------------------------|--------------------------|
|------------------------|--------------------------|
|------------------------|--------------------------|
|-2--2-----2--5^2--4-----|-----2--4--2--2--2--4--2--|     
|-0--0--4--0--0----0--3'-|-(3)-0--0--0--0--0--0--0--|
|------------------------|--------------------------|


  E riff
|---------------------------------------------------|
|------------------------|--------------------------|-
|------------------------|--------------------------|
|------------------------|--------------------------|
|-2--2-----2--5^2--4-----|-----2--4--2--2--2--4--2--|
|-0--0--4--0--0----0--3'-|-(3)-0--0--0--0--0--0--0--|

 A riff
|------------------------|--------------------------|
|------------------------|--------------------------|
|------------------------|--------------------------|
|-2--2-----2--5^2--4-----|-----2--4--2--2--2--4--2--|     
|-0--0--4--0--0----0--3'-|-(3)-0--0--0--0--0--0--0--|
|------------------------|--------------------------|


 A verse riff
|-----------------|            |------------------|
|-----------------|            |------------------|
|-----2-----------| play 3     |-----2-----2------|
|-----2-----------| times      |-----2-----2------|
|-----0-----------| <----      |-----0-----0------|
|--3--------------|            |--3-----3-----3^0-|

Been a long time since I rock and rolled

 A verse riff
|-----------------|            |------------------|
|-----------------|            |------------------|
|-----2-----------| play 3     |-----2-----2------|
|-----2-----------| times      |-----2-----2------|
|-----0-----------| <----      |-----0-----0------|
|--3--------------|            |--3-----3-----3^0-|

Been a long time since I did the stroll.



 D verse riff
|-----------------|            |------------------|
|-----3-----------| play 3     |-----3-----3------|
|-----2-----------| times      |-----2-----2------|
|-----0-----------| <----      |-----0-----0------|
|--3--------------|            |--3-----3-----3^0-|
|-----------------|            |------------------|
Let me get back let me get back let me get back, baby where I come 

 A verse riff
|-----------------|            |------------------|
|-----------------|            |------------------|
|-----2-----------| play 3     |-----2-----2------|
|-----2-----------| times      |-----2-----2------|
|-----0-----------| <----      |-----0-----0------|
|--3--------------|            |--3-----3-----3^0-|


E verse riff
|--------------------------|--------------------------|------------|
|--------------------------|--------------------------|------------|
|--------------------------|--------------------------|------------|
|--9--9--11-9--9--9--11-9--|--9--9--11-9--9--9--11-9--|--7---------|
|--7--7--7--7--7--7--7--7--|--7--7--7--7--7--7--7--7--|--5---------|
|--------------------------|--------------------------|------------|

It's been a long time been a long time been a long lonely lonely lonely lonely
lonely 

 A riff
|------------------------|--------------------------|
|------------------------|--------------------------|
|------------------------|--------------------------|
|-2--2-----2--5^2--4-----|-----2--4--2--2--2--4--2--|      repeat 1x
|-0--0--4--0--0----0--3'-|-(3)-0--0--0--0--0--0--0--|
|------------------------|--------------------------|
time.

That covers the two types of progressions for the verse and chorus.  You should
be able to figure out when each is played by the way they sound.

The end is as follows:

  free time
  A7
|--------------------------------------------------------------------------|
|--5-----------------------------------------------------------------------|
|--x-----------------------------------------------------------------------|
|--5---------------------------5^7^5-7^5----5------------------------------|
|--4--------3^5^3------3-5/7-------------0-----------------------5---------|
|-------5---------3^5-------------------------------------------------------|
            
Submit corrections

↑ Back to top | Tablatures and chords for acoustic guitar and electric guitar, ukulele, drums are parodies/interpretations of the original songs. You may use it for private study, scholarship, research or language learning purposes only