» » »

Led Zeppelin - Misty Mountin Hop Bass

Artists:  A B C D E F G H I J K L M N O P Q R S T U V W X Y Z # 

Misty Mountin Hop Bass

(ver. 1) Click to play this song!
Led Zeppelin
 Rating:
4/5 (4 votes)
                I n this song an electric piano does the bass but here it is for the ones who want to play it wiht bass...

Intro / Verse

G:-------------------------------
D:-------------------------------
A:-------------------------------
E:--5--3--0-0--0-5--3---0-0---0--


Chorus

G:-------------------------------------
D:---------7-----------7---------------
A:-----7-9---9-7---7-9---9-7-----------  x2
E:--9------------7-----------5---------


During solo

G:-------------------------------
D:-------------------------------
A:-------------------------------
E:--5--3--0-0--0-5--3---0-0---0--

play it a few times and than this:

G:-------------------------------------
D:---------7-----------7---------------
A:-----7-9---9-7---7-9---9-7-----------
E:--9------------7-----------5---------


Listen to it to find out when to play each riff...
Please rate this tab
            
Submit corrections

↑ Back to top | Tablatures and chords for acoustic guitar and electric guitar, ukulele, drums are parodies/interpretations of the original songs. You may use it for private study, scholarship, research or language learning purposes only