» » »

La Roux - Quicksand Tabs

Artists:  A B C D E F G H I J K L M N O P Q R S T U V W X Y Z # 

Quicksand Tabs

(ver. 1) Click to play this song!
La Roux
 Rating:
4/5 (4 votes)


 Quicksand lessons Tabs too difficult? Try these video lessons and learn fast
 
                It's 100% good, because I tabbed it by watching the acoustic version of Elly Jackson 
herself playing Quicksand. This is a pretty sweet tune to play acoustically. Enjoy ;D

LA ROUX - QUICKSAND
No Capo

Intro :

e|--5-------|
B|--5-------|
G|--5-------|
D|--5-------|
A|--7-------|
E|--5-------|   x5, (find the strumming)

e|--1-------|
B|--1-------|
G|--2-------|
D|--3-------|
A|--3-------|
E|--1-------|   x5

e|--3-------|
B|--3-------|
G|--4-------|
D|--5-------|
A|--5-------|
E|--3-------|   x5

e|--5-------|
B|--5-------|
G|--5-------|
D|--5-------|
A|--7-------|
E|--5-------|   x5

Ooooh, Ooooh, Oooh, Ooooooh x2

Verse 1 :

e|--5-------|
B|--5-------|
G|--5-------|
D|--5-------|
A|--7-------|
E|--5-------|   x5,

e|--1-------|
B|--1-------|
G|--2-------|
D|--3-------|
A|--3-------|
E|--1-------|   x5

e|--3-------|
B|--3-------|
G|--4-------|
D|--5-------|
A|--5-------|
E|--3-------|   x5

e|--5-------|
B|--5-------|
G|--5-------|
D|--5-------|
A|--7-------|
E|--5-------|   x5

Repeat the same set of chords three times then...

(And I'm in the QUICKSAND!...)


Chorus :


e|--5-------|
B|--5-------|
G|--5-------|
D|--5-------|
A|--7-------|
E|--5-------|   x5

e|--3-------|
B|--3-------|
G|--4-------|
D|--5-------|
A|--5-------|
E|--3-------|   x2

e|--8-------|
B|--8-------|
G|--9-------|
D|--8-------|
A|--10------|
E|--8-------|   x5

e|--5-------|
B|--5-------|
G|--5-------|
D|--5-------|
A|--7-------|
E|--5-------|   x2,

Repeat same set of chords twice


Verse 2 :

Same chords than Verse 1


Bridge :

(stroke softly)
e|--5-------|
B|--5-------|
G|--5-------|
D|--5-------|
A|--7-------|
E|--5-------|   x6

You, you moved into my mind

e|--3-------|
B|--3-------|
G|--4-------|
D|--5-------|
A|--5-------|
E|--3-------|   x6

again. Ooohh....


ETC.
            
Submit corrections



        Quicksand lessons Hard to play? Try these video lessons and learn fast Quicksand lessons
        
↑ Back to top | Tablatures and chords for acoustic guitar and electric guitar, ukulele, drums are parodies/interpretations of the original songs. You may use it for private study, scholarship, research or language learning purposes only