» » »

Labrinth - Jealous Tabs

Artists:  A B C D E F G H I J K L M N O P Q R S T U V W X Y Z # 

Jealous Tabs

(ver. 1) Click to play this song!
Labrinth
 Rating:
4/5 (4 votes)

 Jealous  lessons Tabs too difficult? Try these video lessons and learn fast
 
                Tuning:

e|----0/2------------------------0/2-----------------------------------------|
B|----------0---------3-----------------0---------3--------------------------|
G|---------------2----------------------------2------------------------------|
D|---------------------------------------------------------------------------|
A|---------------------------------------------------------------------------|
E|---------------------------------------------------------------------------|

e|---------------------------------------------------------------------------|
B|-----3----2----------------------------------------------------------------|
G|----------------4-----2----2-----------------------------------------------|
D|-------------------------------------2------4---5---4----2----0------0-----|
A|---------------------------------------------------------------------------|
E|---------------------------------------------------------------------------|
            
Submit corrections


        Jealous  lessons Hard to play? Try these video lessons and learn fast Jealous  lessons
        
↑ Back to top | Tablatures and chords for acoustic guitar and electric guitar, ukulele, drums are parodies/interpretations of the original songs. You may use it for private study, scholarship, research or language learning purposes only