» » »

Kutless - Take Me In Tabs

Artists:  A B C D E F G H I J K L M N O P Q R S T U V W X Y Z # 

Take Me In Tabs

(ver. 3) Click to play this song!
Kutless
 Rating:
4/5 (4 votes)

 Take Me In lessons Tabs too difficult? Try these video lessons and learn fast
 
                Tuning: Drop D (eBGDAD)

Intro:

This intro is almost exactly like the original, but bear in mind that the intro is 
played by two guitars, which I combined into one. To make the muted strings sound right, 
your ring finger securely on the fourth fret of the D string, muting both the A and G strings.

| h :hammer-on
| / :slide
| ~ :vibrato
| x :muted string

e|----0h2--------------------------------------------|
B|--2------------------------------------------------|
G|---------------------------------------------------|
D|------------7---7-6-4---------2/4-~4---------------|
A|----------0----------------------------------------|
D|--------4-------------4-4-0-0--------2-4-----------|

e|----0h2--------------------------------------------|
B|--2---------------------------2---2----------------|
G|------------1-------1---------x--------------------|
D|--------------------------4-4-4-4------------------|
A|--------------------------x-x----------------------|
D|--------2-2---2-0-2---2-2-0-0----(0-0h2-2-2)-------|

e|------0h2------------------------------------------|
B|--0-2----------------------------------------------|
G|---------------------------------------------------|
D|--------------7---7-6-4---------2/4-~4-------------|
A|------------0--------------------------------------|
D|----------4-------------4-4-0-0--------2-4---------|

e|----0h2---------------------------------------0h2--|
B|--2---------------------------2---2-------0-2------|
G|------------1-------1---------x--------------------|
D|--------------------------4-4-4-4------------------|
A|--------------------------x-x----------------------|
D|--------2-2---2-0-2---2-2-0-0----(0-0h2-2-2)-------|

Verse:

Here the guitarist only strums the four bass strings, but, hey, they’re chords so you 
play them however you want. The tabs for the chords as they are originally played are as follows:

                       Personally, I play them like this:
  (F#m)  (E)  (D)               (F#m)  (E)  (D)
e|---------------|            e|--2-----0----2-|
B|---------------|            B|--2-----0----3-|
G|--2-----1----2-|            G|--2-----1----2-|
D|--4-----2----0-|            D|--4-----2----0-|
A|--4-----2----0-|            A|--4-----2----0-|
D|--4-----2----0-|            D|--4-----2----0-|

          F#m                      D
  Take me past the outer courts, into the Holy Place
  E                              D                E
  Past the brazen altar, Lord, I want to see Your face
          F#m                              D
  Pass me by the crowds of people, and the priests who sing your praise
    E                                                  D              E
  I hunger and thirst for your righteousness, but it’s only found one place

Chorus: (Power chords)

          F#m               E
  Take me in to the Holy of Holies
          D         E            F#m
  Take me in by the blood of the Lamb
          F#m               E
  Take me in to the Holy of Holies
           D              E            F#m
  Take the coal, touch my lips, here I am

(Replay Verse)
(Replay Chorus)
(Replay Intro)
(Replay Verse)
(Replay Chorus)x2
(Repeat last line)

End on F#m.

There it is! A great worship song by a great band... hope you enjoy it! This seems to me 
be pretty much exactly like the original, though there are some differences I’m sure.

God bless, all!
            
Submit corrections


        Take Me In lessons Hard to play? Try these video lessons and learn fast Take Me In lessons
        
↑ Back to top | Tablatures and chords for acoustic guitar and electric guitar, ukulele, drums are parodies/interpretations of the original songs. You may use it for private study, scholarship, research or language learning purposes only