» » »

Kutless - Take Me In Tabs

Artists:  A B C D E F G H I J K L M N O P Q R S T U V W X Y Z # 

Take Me In Tabs

(ver. 2) Click to play this song!
Kutless
 Rating:
4/5 (4 votes)

 Take Me In lessons Tabs too difficult? Try these video lessons and learn fast
 
                Standard Tuning High to Low ebgdaE
Im pretty sure that during this song hes using a phaser and delay
Basically through this whole song hes just playing bits and parts of the intro, you just 
listen for 'em

---------------------------------------------------------------------|
---------------------------------------------------------------------|
---------------------------------------------------------------------|
-------2h4----------7-7-7--6--4----4---------2h4-4-------------------|
-----4---------0-----------------------------------------------------|
-------------2-------------------0----0---2--------------------------|


--------------------------------------------------------------------------|
--------------------------------------------------------------------------|
------------------------------------------------666-----------------------|
-------2h4-------------6------6----6------4-4---444-----------------------|
----4------------0--------------------------------------------------------|
--------------2-----------0-0---0-----0-----------------------------------|

chords for acoustic for verse
f# D E  D E Reapeat
(On the acoustic hes playing power chords and playing the E in a higher octave:meaning 
on 7th fret on A string


Chorus Electric
Take me in to the holy of holies   take me in by the blood of the LAmb!
       F#                       E            D            E          F#  D E

And so on and so Forth!!!!!! any questions or comments please leave them
mr_pikles
            
Submit corrections


        Take Me In lessons Hard to play? Try these video lessons and learn fast Take Me In lessons
        
↑ Back to top | Tablatures and chords for acoustic guitar and electric guitar, ukulele, drums are parodies/interpretations of the original songs. You may use it for private study, scholarship, research or language learning purposes only