» » »

Kt Tunstall - The Hidden Heart Tabs

Artists:  A B C D E F G H I J K L M N O P Q R S T U V W X Y Z # 

The Hidden Heart Tabs

(ver. 2) Click to play this song!
Kt Tunstall
 Rating:
3/5 (28 votes)

 The Hidden Heart lessons Tabs too difficult? Try these video lessons and learn fast
 
                Tuning: Standard 

e|-----------------|-----------------|-----------------|-----------------|
B|---------------3-|-----------------|---------------3-|-----------------|
G|-------0-----0---|-------0-------0-|-------0-----0---|-------0-------0-|
D|-----0-----0-----|-----0-------0---|-----0-----0-----|-----0-------0---|
A|-----------------|-----------------|-----------------|-----------------|
E|-3-------3-------|-3-------3-------|-3-------3-------|-3-------3-------|

e|-----------------|-----------------|-----------------|-----------------|
B|---------------3-|-----------------|---------------3-|-----------------|
G|-------0-----0---|-------0---------|-------0-----0---|-------0---------|
D|-----3-----3-----|-----3-------3\2-|-----2-----2-----|-----2-------2p0-|
A|-----------------|-----------------|-----------------|-----------------|
E|-3-------3-------|-3-------3-------|-3-------3-------|-3-------3-------|

e|-----------------|-----------------|-----------------|-----------------|
B|---------------3-|-----------------|---------------3-|-----------------|
G|-------0-----0---|-------0-------0-|-------0-----0---|-------0-------0-|
D|-----0-----0-----|-----0-------0---|-----0-----0-----|-----0-------0---|
A|-----------------|-----------------|-----------------|-----------------|
E|-3-------3-------|-3-------3-------|-3-------3-------|-3-------3-------|

e|-----------------|-----------------|-----------------|-----------------|
B|---------------3-|-----------------|---------------3-|-----------------|
G|-------0-----0---|-------0---------|-------0-----0---|-------0---------|
D|-----3-----3-----|-----3-------3\2-|-----2-----2-----|-----2-------2p0-|
A|-----------------|-----------------|-----------------|-----------------|
E|-3-------3-------|-3-------3-------|-3-------3-------|-3-------3-------|

e|-----------------|-----------------|-----------------|-----------------|
B|---------------3-|-----------------|---------------3-|-----------------|
G|-------0-----0---|-------0-------0-|-------0-----0---|-------0-------0-|
D|-----0-----0-----|-----0-------0---|-----0-----0-----|-----0-------0---|
A|-----------------|-----------------|-----------------|-----------------|
E|-3-------3-------|-3-------3-------|-3-------3-------|-3-------3-------|



   Down,   down,     cut me  down so   I can   lie on    familiar ground.       
e|-----------------|-----------------|-----------------|-----------------|
B|-----------------|-----------------|-----------------|-----------------|
G|-------0-------0-|-------0-------0-|-------0-------0-|-------0-------0-|
D|-----0-------0---|-----0-------0---|-----0-------0---|-----0-------0---|
A|---------1-------|-3---------------|---------3-------|-0---------------|
E|-3---------------|---------3-------|-1---------------|---------3-------|

e|-----------------|-----------------|-----------------|-----------------|
B|-----------------|-----------------|-----------------|---------------3-|
G|-------0-------0-|-------0-------0-|-------0-------0-|-------0-----0---|
D|-----0-------0---|-----0-------0---|-----0-------0---|-----0-----0-----|
A|-1-------3-------|-----------------|-3-------0-------|-----------------|
E|-----------------|-3-------1-------|-----------------|-3-------3-------|
                                                   I've
e|-----------------|-----------------|-----------------|
B|-----------------|---------------3-|-----------------|
G|-------0-------0-|-------0-----0---|-------0-------0-|
D|-----0-------0---|-----0-----0-----|-----0-------0---|
A|-----------------|-----------------|-----------------|
E|-3-------3-------|-3-------3-------|-3-------3-------|

 witnessed all that  you   ignore and  I don't want to  see it  no more.
e|-----------------|-----------------|-----------------|-----------------|
B|-----------------|-----------------|-----------------|-----------------|
G|-------0-------0-|-------0-------0-|-------0-------0-|-------0-------0-|
D|-----0-------0---|-----0-------0---|-----0-------0---|-----0-------0---|
A|---------1-------|-3---------------|---------3-------|-0---------------|
E|-3---------------|---------3-------|-1---------------|---------3-------|

e|-----------------|-----------------|-----------------|-----------------|
B|-----------------|-----------------|-----------------|---------------3-|
G|-------0-------0-|-------0-------0-|-------0-------0-|-------0-----0---|
D|-----0-------0---|-----0-------0---|-----0-------0---|-----0-----0-----|
A|-1-------3-------|-----------------|-3-------0-------|-----------------|
E|-----------------|-3-------1-------|-----------------|-3-------3-------|
                                                   Hold
e|-----------------|-----------------|-----------------|
B|-----------------|---------------3-|-----------------|
G|-------0-------0-|-------0-----0---|-------0-------0-|
D|-----0-------0---|-----0-----0-----|-----0-------0---|
A|-----------------|-----------------|-----------------|
E|-3-------3-------|-3-------3-------|-3-------3-------|

 your knife steady and plunge it deep I'm more than ready for the secrets I'll keep.     
e|-----------------|-----------------|-----------------|-----------------|
B|-----------------|-----------------|-----------------|-----------------|
G|-------0-------0-|-------0-------0-|-------0-------0-|-------0-------0-|
D|-----0-------0---|-----0-------0---|-----0-------0---|-----0-------0---|
A|---------1-------|-3---------------|---------3-------|-0---------------|
E|-3---------------|---------3-------|-1---------------|---------3-------|

e|-----------------|-----------------|-----------------|-----------------|
B|-----------------|-----------------|-----------------|---------------3-|
G|-------0-------0-|-------0-------0-|-------0-------0-|-------0-----0---|
D|-----0-------0---|-----0-------0---|-----0-------0---|-----0-----0-----|
A|-1-------3-------|-----------------|-3-------0-------|-----------------|
E|-----------------|-3-------1-------|-----------------|-3-------3-------|

e|-----------------|-----------------|-----------------|
B|-----------------|---------------3-|-----------------|
G|-------0-------0-|-------0-----0---|-------0-------0-|
D|-----0-------0---|-----0-----0-----|-----0-------0---|
A|-----------------|-----------------|-----------------|
E|-3-------3-------|-3-------3-------|-3-------3-------|

  I can    feel and  I can see and the hidden part is the heart of me.  
e|-----------------|-----------------|-----------------|-----------------|
B|-----------------|-----------------|-----------------|-----------------|
G|-------0-------0-|-------0-------0-|-------0-------0-|-------0-------0-|
D|-----0-------0---|-----0-------0---|-----0-------0---|-----0-------0---|
A|---------1-------|-3---------------|---------3-------|-0---------------|
E|-3---------------|---------3-------|-1---------------|---------3-------|

 Think you sit    upon my    grave but I'll be here...
e|-----------------|-----------------|-----------------|-----------------|
B|-----------------|-----------------|-----------------|-----------------|
G|-------0-------0-|-------0-------0-|-------0-------0-|-------0-------0-|
D|-----0-------0---|-----0-------0---|-----0-------0---|-----0-------0---|
A|---------1-------|-3---------------|-3-------3-------|-3-------3-------|
E|-3---------------|---------3-------|-----------------|-----------------|
  
  I'll be here...
e|-----------------|-----------------|-----------------|-----------------|
B|-----------------|-----------------|-----------------|-----------------|
G|-------0-------0-|-------0-------0-|-------0-------0-|-------0-------0-|
D|-----0-------0---|-----0-------0---|-----0-------0---|-----0-------0---|
A|-3-------3-------|-3-------3-------|-3-------3-------|-3-------3-------|
E|-----------------|-----------------|-----------------|-----------------|
  I'll be here...                              when your children rule the
e|-----------------|-----------------|-----------------|-----------------|
B|-----------------|-----------------|-----------------|-----------------|
G|-------0-------0-|-------0-------0-|-------0-------0-|-------0-------0-|
D|-----0-------0---|-----0-------0---|-----0-------0---|-----0-------0---|
A|-3-------3-------|-3-------3-------|-3-------3-------|-0-------0-------|
E|-----------------|-----------------|-----------------|-----------------|

   day. 
e|-----------------|-----------------|-----------------|-----------------|
B|-----------------|-----------------|-----------------|-----------------|
G|-------0-------0-|-------0-------0-|-------0-------0-|-------0-------0-|
D|-----0-------0---|-----0-------0---|-----0-------0---|-----0-------0---|
A|---------1-------|-3---------------|---------3-------|-0---------------|
E|-3---------------|---------3-------|-1---------------|---------3-------|

e|-----------------|-----------------|-----------------|-----------------|
B|---------------3-|-----------------|---------------3-|-----------------|
G|-------0-----0---|-------0-------0-|-------0-----0---|-------0---------|
D|-----0-----0-----|-----0-------0---|-----3-----3-----|-----3-------3\2-|
A|-----------------|-----------------|-----------------|-----------------|
E|-3-------3-------|-3-------3-------|-3-------3-------|-3-------3-------|

e|-----------------|-----------------|-----------------|-----------------|
B|---------------3-|-----------------|---------------3-|-----------------|
G|-------0-----0---|-------0---------|-------0-----0---|-------0-------0-|
D|-----2-----2-----|-----2-------2p0-|-----0-----0-----|-----0-------0---|
A|-----------------|-----------------|-----------------|-----------------|
E|-3-------3-------|-3-------3-------|-3-------3-------|-3-------3-------|

e|-----------------|-----------------|-----------------|-----------------|
B|---------------3-|-----------------|---------------3-|-----------------|
G|-------0-----0---|-------0-------0-|-------0-----0---|-------0---------|
D|-----0-----0-----|-----0-------0---|-----3-----3-----|-----3-------3\2-|
A|-----------------|-----------------|-----------------|-----------------|
E|-3-------3-------|-3-------3-------|-3-------3-------|-3-------3-------|

e|-----------------|-----------------|-----------------|-----------------|
B|---------------3-|-----------------|---------------3-|-----------------|
G|-------0-----0---|-------0---------|-------0-----0---|-------0-------0-|
D|-----2-----2-----|-----2-------2p0-|-----0-----0-----|-----0-------0---|
A|-----------------|-----------------|-----------------|-----------------|
E|-3-------3-------|-3-------3-------|-3-------3-------|-3-------3-------|

                                 So
e|-----------------|-----------------|
B|---------------3-|-----------------|
G|-------0-----0---|-------0-------0-|
D|-----0-----0-----|-----0-------0---|
A|-----------------|-----------------|
E|-3-------3-------|-3-------3-------|

   Down,   down,     cut me  down so   I can   lie on    familiar ground.       
e|-----------------|-----------------|-----------------|-----------------|
B|-----------------|-----------------|-----------------|-----------------|
G|-------0-------0-|-------0-------0-|-------0-------0-|-------0-------0-|
D|-----0-------0---|-----0-------0---|-----0-------0---|-----0-------0---|
A|---------1-------|-3---------------|---------3-------|-0---------------|
E|-3---------------|---------3-------|-1---------------|---------3-------|

                                                   I've
e|-----------------|-----------------|-----------------|
B|-----------------|-----------------|-----------------|
G|-------0-------0-|-------0-------0-|-------0-------0-|
D|-----0-------0---|-----0-------0---|-----0-------0---|
A|-1-------3-------|-----------------|-3-------0-------|
E|-----------------|-3-------1-------|-----------------|

 witnessed all that  you   ignore and  I don't want to  see it  no more.
e|-----------------|-----------------|-----------------|-----------------|
B|-----------------|-----------------|-----------------|-----------------|
G|-------0-------0-|-------0-------0-|-------0-------0-|-------0-------0-|
D|-----0-------0---|-----0-------0---|-----0-------0---|-----0-------0---|
A|---------1-------|-3---------------|---------3-------|-0---------------|
E|-3---------------|---------3-------|-1---------------|---------3-------|

                                                  Hold
e|-----------------|-----------------|-----------------|
B|-----------------|-----------------|-----------------|
G|-------0-------0-|-------0-------0-|-------0-------0-|
D|-----0-------0---|-----0-------0---|-----0-------0---|
A|-1-------3-------|-----------------|-3-------0-------|
E|-----------------|-3-------1-------|-----------------|

 your knife steady and plunge it deep I'm more than ready for the secrets I'll keep.     
e|-----------------|-----------------|-----------------|-----------------|
B|-----------------|-----------------|-----------------|-----------------|
G|-------0-------0-|-------0-------0-|-------0-------0-|-------0-------0-|
D|-----0-------0---|-----0-------0---|-----0-------0---|-----0-------0---|
A|---------1-------|-3---------------|---------3-------|-0---------------|
E|-3---------------|---------3-------|-1---------------|---------3-------|

                                                  
e|-----------------|-----------------|-----------------|
B|-----------------|-----------------|-----------------|
G|-------0-------0-|-------0-------0-|-------0-------0-|
D|-----0-------0---|-----0-------0---|-----0-------0---|
A|-1-------3-------|-----------------|-3-------0-------|
E|-----------------|-3-------1-------|-----------------|

  I can speak and I shall say that the crack in the wood is a difficult way
e|-----------------|-----------------|-----------------|-----------------|
B|-----------------|-----------------|-----------------|-----------------|
G|-------0-------0-|-------0-------0-|-------0-------0-|-------0-------0-|
D|-----0-------0---|-----0-------0---|-----0-------0---|-----0-------0---|
A|---------1-------|-3---------------|---------3-------|-0---------------|
E|-3---------------|---------3-------|-1---------------|---------3-------|

 Think you sit    upon my    grave but I'll be here...
e|-----------------|-----------------|-----------------|-----------------|
B|-----------------|-----------------|-----------------|-----------------|
G|-------0-------0-|-------0-------0-|-------0-------0-|-------0-------0-|
D|-----0-------0---|-----0-------0---|-----0-------0---|-----0-------0---|
A|---------1-------|-3---------------|-3-------3-------|-3-------3-------|
E|-3---------------|---------3-------|-----------------|-----------------|
  
  I'll be here...                     I'll be here...
e|-----------------|-----------------|-----------------|-----------------|
B|-----------------|-----------------|-----------------|-----------------|
G|-------0-------0-|-------0-------0-|-------0-------0-|-------0-------0-|
D|-----0-------0---|-----0-------0---|-----0-------0---|-----0-------0---|
A|-3-------3-------|-3-------3-------|-3-------3-------|-3-------3-------|
E|-----------------|-----------------|-----------------|-----------------|

e|-----------------|-----------------|-----------------|-----------------|
B|-----------------|-----------------|-----------------|-----------------|
G|-------0-------0-|-------0-------0-|-------0-------0-|-------0-------0-|
D|-----0-------0---|-----0-------0---|-----0-------0---|-----0-------0---|
A|-3-------3-------|-3-------3-------|-3-------3-------|-3-------3-------|
E|-----------------|-----------------|-----------------|-----------------|

  I'll be here...                              when your children rule the
e|-----------------|-----------------|-----------------|-----------------|
B|-----------------|-----------------|-----------------|-----------------|
G|-------0-------0-|-------0-------0-|-------0-------0-|-------0-------0-|
D|-----0-------0---|-----0-------0---|-----0-------0---|-----0-------0---|
A|-3-------3-------|-3-------3-------|-3-------3-------|-0-------0-------|
E|-----------------|-----------------|-----------------|-----------------|

   day. 
e|-----------------|-----------------|-----------------|-----------------|
B|-----------------|-----------------|-----------------|-----------------|
G|-------0-------0-|-------0-------0-|-------0-------0-|-------0-------0-|
D|-----0-------0---|-----0-------0---|-----0-------0---|-----0-------0---|
A|---------1-------|-3---------------|---------3-------|-0---------------|
E|-3---------------|---------3-------|-1---------------|---------3-------|

  
e|-----------------|-----------------|-----------------|-----------------|
B|-----------------|-----------------|-----------------|-----------------|
G|-------0-------0-|-------0-------0-|-------0-------0-|-------0-------0-|
D|-----0-------0---|-----0-------0---|-----0-------0---|-----0-------0---|
A|---------1-------|-3---------------|---------3-------|-0---------------|
E|-3---------------|---------3-------|-1---------------|---------3-------|

                                 Yes,  I'll be here
e|-----------------|-----------------|-----------------|-----------------|
B|-----------------|-----------------|-----------------|-----------------|
G|-------0-------0-|-------0-------0-|-------0-------0-|-------0-------0-|
D|-----0-------0---|-----0-------0---|-----0-------0---|-----0-------0---|
A|---------1-------|-3---------------|-3-------3-------|-3-------3-------|
E|-3---------------|---------3-------|-----------------|-----------------|

  I'll be here...                      I'll be here...  
e|-----------------|-----------------|-----------------|-----------------|
B|-----------------|-----------------|-----------------|-----------------|
G|-------0-------0-|-------0-------0-|-------0-------0-|-------0-------0-|
D|-----0-------0---|-----0-------0---|-----0-------0---|-----0-------0---|
A|-3-------3-------|-3-------3-------|-3-------3-------|-3-------3-------|
E|-----------------|-----------------|-----------------|-----------------|

e|-----------------|-----------------|-----------------|-----------------|
B|-----------------|-----------------|-----------------|-----------------|
G|-------0-------0-|-------0-------0-|-------0-------0-|-------0-------0-|
D|-----0-------0---|-----0-------0---|-----0-------0---|-----0-------0---|
A|-3-------3-------|-3-------3-------|-3-------3-------|-3-------3-------|
E|-----------------|-----------------|-----------------|-----------------|
                                                                    
  I'll be here...                              when your children rule the
e|-----------------|-----------------|-----------------|-----------------|
B|-----------------|-----------------|-----------------|-----------------|
G|-------0-------0-|-------0-------0-|-------0-------0-|-------0-------0-|
D|-----0-------0---|-----0-------0---|-----0-------0---|-----0-------0---|
A|-3-------3-------|-3-------3-------|-3-------3-------|-0-------0-------|
E|-----------------|-----------------|-----------------|-----------------|

   day.                      [Slow down towards the end]  [Strum final chord]
e|-----------------|-----------------|-----------------|-----------------|
B|-----------------|-----------------|-----------------|---------3-------|
G|-------0-------0-|-------0-------0-|-------0-------0-|-------0-0-------|
D|-----0-------0---|-----0-------0---|-----0-------0---|-----0---0-------|
A|---------1-------|-3---------------|---------3-------|-0---------------|
E|-3---------------|---------3-------|-1---------------|---------3-------|            
Submit corrections


        The Hidden Heart lessons Hard to play? Try these video lessons and learn fast The Hidden Heart lessons
        
↑ Back to top | Tablatures and chords for acoustic guitar and electric guitar, ukulele, drums are parodies/interpretations of the original songs. You may use it for private study, scholarship, research or language learning purposes only