» » »

Kitchie Nadal - Greatest Day Chords

Artists:  A B C D E F G H I J K L M N O P Q R S T U V W X Y Z # 

Greatest Day Chords

(ver. 2) Click to play this song!
Kitchie Nadal
 Rating:
4/5 (4 votes)


 Greatest Day lessons Tabs too difficult? Try these video lessons and learn fast
 
                Ost: Sunsilk

Intro:

e--/12-----------------------------------------|
b----------------10-10-------------------------|
g--------------9-------9-9---9/11-9------------|
d-----------------------------------9/11-9-7---|
a----------------------------------------------|
E----------------------------------------------|

Verse:
play this
After the first line and the second line

e--------------------|
b------10-10---------|
g----9-------9-9-----|
d--------------------|
a--------------------|
E--------------------|

Refrain:

play this after the first line of refrain
e------------------|
b-------7-7-8-10---|
g---7-9------------|
d------------------|
a------------------|
E------------------|

Chorus:
                A      E
Today is the greatest day
              C#m      D
Wherever she come my way
                A      E
Today is the greatest day
          D
close to you

pagpasenxahan nyo na po tab ko....

naririnig ko lang tong song na to sa commercial e...
nagandahan ako so napagtripan ko kapain...try nyo po if mali po magcomment po kau ok 
kung lait lait nyo...sana may makakapa nito ng kompleto...crush ko kasi barbie e..
tnx po
            
Submit corrections



        Greatest Day lessons Hard to play? Try these video lessons and learn fast Greatest Day lessons
        
↑ Back to top | Tablatures and chords for acoustic guitar and electric guitar, ukulele, drums are parodies/interpretations of the original songs. You may use it for private study, scholarship, research or language learning purposes only