» » »

Kings Of Leon - Last Mile Home Tabs

Artists:  A B C D E F G H I J K L M N O P Q R S T U V W X Y Z # 

Last Mile Home Tabs

(ver. 2) Click to play this song!
Kings Of Leon
 Rating:
4/5 (4 votes)

 Last Mile Home lessons Tabs too difficult? Try these video lessons and learn fast
 
                
Almost complete tab. Contains the clean and distorted parts but is missing chorus and solo. 

Tuning: Standard

Intro:

e|---------12---------------------------------------------------------------|    
B|---10-------9-----12--14--------14h12----12h10----10h8----8h6-------------|
G|--------------------------11----------13-------11------9------7-10--------|
D|--------------------------------------------------------------------------|  
A|--------------------------------------------------------------------------|
E|--------------------------------------------------------------------------|

Verse 1:

e|--------------------------|  
B|--------------------------|
G|---------6--5--4-------1--|
D|--7------6--5--4-------2--|
A|--7------4--3--2-------2--|
E|--5--------------------0--|

Riff 1:

          |----------Distorted part--------------|
e|------------------------------------------------------------------------------------------------|
B|----------------------------------------------------14h12----12h10----10h8----8h6---------------|
G|------------------------------6--5--4---------------------13-------11------9------7-10----------|
D|--7---------------------------6--5--4-----------------------------------------------------------| 
A|--7--------------4------------4--3--2-----------------------------------------------------------|
E|--5------5-5-7-5---4--4------------------5h7p5p4------------------------------------------------|

Verse 2:

e|----------12--------------------------------------------------------------|    
B|---10--------9-----12--14--------10-------12h14p12----9-10----------------|
G|---------------------------11-------9--------------11---------------------|
D|--------------------------------------------------------------------------|  
A|--------------------------------------------------------------------------|
E|--------------------------------------------------------------------------|

Riff 2:

          |----------Distorted part--------------|
e|------------------------------------------------------------------------------------------------|
B|----------------------------------------------------14h12----12h10----10h8----8h6---------------|
G|------------------------------6--5--4---------------------13-------11------9------7-10----------|
D|--7---------------------------6--5--4-----------------------------------------------------------| 
A|--7--------------4------------4--3--2-----------------------------------------------------------|
E|--5------5-5-7-5---4--4------------------5h7p5p4------------------------------------------------|

Verse 3:

e|--------------------------|  
B|--------------------------|
G|---------6--5--4-------1--|
D|--7------6--5--4-------2--|
A|--7------4--3--2-------2--|
E|--5--------------------0--|
            
Submit corrections


        Last Mile Home lessons Hard to play? Try these video lessons and learn fast Last Mile Home lessons
        
↑ Back to top | Tablatures and chords for acoustic guitar and electric guitar, ukulele, drums are parodies/interpretations of the original songs. You may use it for private study, scholarship, research or language learning purposes only