» » »

King Diamond - Midnight Bass

Artists:  A B C D E F G H I J K L M N O P Q R S T U V W X Y Z # 

Midnight Bass

(ver. 1) Click to play this song!
King Diamond
 Rating:
4/5 (4 votes)


 Midnight lessons Tabs too difficult? Try these video lessons and learn fast
 
                
Quite hard to hear the bass but this should be fairly close to what is played on the album. 


Time Signature: 4/4 

Tempo: Around 64-66

Tuning: Standard

     Q    E  E  Q    S S S S    Q    E  E  E  E  S S E   
G||----------5---------------|--------------------------|
D||--------------------------|--------------------------|
A||--3----3-----5----5-6-5---|--3----3--3--7--6--4-6-7--|
E||------------------------6-|--------------------------|


  Q    Q    Q    S S S S    Q    E  E E  E  S S E     Q    E  E  Q    Q     
-------------------------|-------------------------|-----------------------|
-------------------------|-------------------------|-----------------------|
--3----3----5----5-6-5---|--3----3--3-7--6--4-6-7--|-----------------------|
-----------------------6-|-------------------------|--4----6--7--6----6----|


  Q    E  E  Q    Q       Q    E  E  Q    Q       Q    E  E  Q    Q     
-----------------------|-----------------------|-----------------------|
-----------------------|-----------------------|-----------------------|
-------4--6--4----4----|-----------------------|-------4--6--4----4----|
--2--------------------|--4----6--7--6----6----|--2--------------------|


  Q    Q    Q    S S S S    Q    E  E  E  E  S S E     Q    Q    Q    S S S S 
-------------------------|--------------------------|-------------------------|
-------------------------|--------------------------|-------------------------|
--3----3----5----5-6-5---|--3----3--3--7--6--4-6-7--|--3----3----5----5-6-5---|
-----------------------6-|--------------------------|-----------------------6-|


  Q    E E  E  E  S S E     Q    E  E  Q    Q       Q    E  E  Q    Q     
-------------------------|-----------------------|-----------------------|
-------------------------|-----------------------|-----------------------|
--3----3-3--7--6--4-6-7--|-----------------------|-------4--6--4----4----|
-------------------------|--4----6--7--6----6----|--2--------------------|


  Q    E  E  Q    Q       Q    E  E  Q    Q       Q    Q    Q    S S S S  
-----------------------|-----------------------|-------------------------|
-----------------------|-----------------------|-------------------------|
-----------------------|-------4--6--4----4----|-------4----3----3-3-3-3-|
--4----6--7--6----6----|--2--------------------|--3----------------------|


  Q    Q    Q    S S S S    Q    Q    Q    S S S S    Q    Q    Q    S S S S  
-------------------------|-------------------------|-------------------------|
-------------------------|-------------------------|-------------------------|
-------4----3----3-3-3-3-|-------4----3----3-3-3-3-|-------4----3----3-3-3-3-|
--3----------------------|--3----------------------|--3----------------------|


  Q    Q    Q    S S S S    Q    Q    Q    S S S S    Q    Q    Q    S S S S  
-------------------------|-------------------------|-------------------------|
-------------------------|-------------------------|-------------------------|
-------4----3----3-3-3-3-|-------4----3----3-3-3-3-|-------4----3----3-3-3-3-|
--3----------------------|--3----------------------|--3----------------------|


  Q    Q    Q    S S S S   
-------------------------||
-------------------------||
-------4----3----3-3-3-3-||
--3----------------------||
            
Submit corrections



        Midnight lessons Hard to play? Try these video lessons and learn fast Midnight lessons
        
↑ Back to top | Tablatures and chords for acoustic guitar and electric guitar, ukulele, drums are parodies/interpretations of the original songs. You may use it for private study, scholarship, research or language learning purposes only