» » »

King Crimson - I Talk To The Wind Tabs

Artists:  A B C D E F G H I J K L M N O P Q R S T U V W X Y Z # 

I Talk To The Wind Tabs

(ver. 2) Click to play this song!
King Crimson
 Rating:
3.3/5 (24 votes)

 I Talk To The Wind lessons Tabs too difficult? Try these video lessons and learn fast
 
                Flute solo:
E|16~~~~-17-15--15\14p12~|-17\14------17\14--------------------14-|
B|-----------------------|-------15~--------15-15~-15h17p15\12----|
G|-----------------------|----------------------------------------|
D|-----------------------|----------------------------------------|
A|-----------------------|----------------------------------------|
E|-----------------------|----------------------------------------|

E|14p12p11-12-14-16-|17p16----17p16----17-p16----17p16---|
B|------------------|------17-------17--------17-------17|
G|------------------|------------------------------------|
D|------------------|------------------------------------|
A|------------------|------------------------------------|
E|------------------|------------------------------------|

E|19~~~-16h17p16----16-------------|----------------------------15-19-22-19|
B|---------------17----15-13-12----|----------------------12-15------------|
G|------------------------------12-|-12-11h12-12-11-12-14------------------|
D|---------------------------------|---------------------------------------|
A|---------------------------------|---------------------------------------|
E|---------------------------------|---------------------------------------|

E|18h19p18----18h19p18---|18h19p18----18h19p18---|
B|---------21----------21|---------21----------21|
G|-----------------------|-----------------------|
D|-----------------------|-----------------------|
A|-----------------------|-----------------------|
E|-----------------------|-----------------------|

Guitar solo:
E|17p16----------------------------|----------------------------|-----------------------------|
B|---------------------------------|----------------------------|-----------------------------|
G|------16-16-----------12-12/16-16|-----11~~--11/14-14~~-16~-14|14\13----------------------16|
D|-------------12h14-14------------|9h12------------------------|------------12/14-14-17-14---|
A|---------------------------------|----------------------------|------14-14~-----------------|
E|---------------------------------|----------------------------|-----------------------------|

E|------------------|-----------------------|
B|15\12-12\8-8p7-8p7|8p7-8p7-8p7-8p7-8p7-8p7|
G|------------------|-----------------------|
D|------------------|-----------------------|
A|------------------|-----------------------|
E|------------------|-----------------------|            
Submit corrections


        I Talk To The Wind lessons Hard to play? Try these video lessons and learn fast I Talk To The Wind lessons
        
↑ Back to top | Tablatures and chords for acoustic guitar and electric guitar, ukulele, drums are parodies/interpretations of the original songs. You may use it for private study, scholarship, research or language learning purposes only