» » »

Killing Heidi - Black Sheep Bass

Artists:  A B C D E F G H I J K L M N O P Q R S T U V W X Y Z # 

Black Sheep Bass

(ver. 1) Click to play this song!
Killing Heidi
 Rating:
4/5 (4 votes)
    Black Sheep lessons Tabs too difficult? Try these video lessons and learn fast
                ICQ# : 14787159


This song is pretty simple, so you should pick it up pretty fast

It's in standard tuning.

This is my first tab!  I'm pretty sure it's right
Killing Heidi is good!

Thanks to all the other people who tab out bass!
If you don't tab, give it a go, and submit it,
it's not as hard as you might think, and and it
will help make you a better player


Chorus

G-------------------------
D----------------53-------
A--3---2---0---34---------
G-------------------------



Verse

G-------------------------        x 3
D-------------------------
A-33--22--00--------------
G--------------0--2--3----

then..

G-------------------------          x 1
D-------------------5-3---
A-303--2--0-----34--------
E-------------------------


play verse twice then chorus

Order of song

0:00   Guitar Intro (so don't play anything)
0:16   Verse x 2
0:47   Chorus x 4
1:03   Verse x 2
1:35   Chorus x 7
then it stops and she sings out
            
Submit corrections

↑ Back to top | Tablatures and chords for acoustic guitar and electric guitar, ukulele, drums are parodies/interpretations of the original songs. You may use it for private study, scholarship, research or language learning purposes only