» » »

Keith Urban - Til Summer Comes Around Tabs

Artists:  A B C D E F G H I J K L M N O P Q R S T U V W X Y Z # 

Til Summer Comes Around Tabs

(ver. 1) Click to play this song!
Keith Urban
 Rating:
4/5 (4 votes)


 Til Summer Comes Around lessons Tabs too difficult? Try these video lessons and learn fast
 
                -------------------------------------------------------------------------------
                 Til' summer comes around - Keith Urban
-------------------------------------------------------------------------------

Tuning:   Standard




Intro:

e|---------------------------0-----------------------15/17\15-----|
B|---0h1----0h1--0h1----0h1----1--1/3-----12h13r12---15/17\15-----|
G|---0h2----0h2--0h2----0h2-------2/4-----------------------------|
D|---------------3------3-----------------------------------------|
A|---0------0-----------------------------------------------------|
E|----------------------------------------------------------------|


e|---------------------------0------------------------------------|
B|---0h1----0h1--0h1----0h1----1--1/3------<12>-------------------|
G|---0h2----0h2--0h2----0h2-------2/4-------------------<12>------|
D|---------------3------3------------------------<7>--------------|
A|---0------0--------------------------------------------------<7>|
E|----------------------------------------------------------------|


e|---------------------------0------------------------------------|
B|---0h1----0h1--0h1----0h1----1--1/3-----------------5-----------|
G|---0h2----0h2--0h2----0h2-------2/4-----------------5-----------|
D|---------------3------3-----------------------------7-----------|
A|---0------0-------------------------------------/7--------------|
E|----------------------------------------------------------------|

Verse 1:
e|-------------1--1--1---1-3--3--3---3-3--3--3---3----------------------|
B|-1--1--1---1-1--1--1---1-3--3--3---3-3--3--3---3----------------------|
G|-2--2--2---2-2--2--2---1----------------------------------------------|
D|-2--2--2---2-3--3--3---3----------------------------------------------|
A|-------------3--3--3---3-2--2--2---2-2--2--2---2----------------------|
E|-------------1--1--1---1-3--3--3---3-3--3--3---3----------------------|

e|-------------1--1--1---1-3--3--3---3-3--3--3---3----------------------|
B|-1--1--1---1-1--1--1---1-3--3--3---3-3--3--3---3----------------------|
G|-2--2--2---2-2--2--2---1----------------------------------------------|
D|-2--2--2---2-3--3--3---3----------------------------------------------|
A|-------------3--3--3---3-2--2--2---2-2--2--2---2----------------------|
E|-------------1--1--1---1-3--3--3---3-3--3--3---3----------------------|

e|-------------1--1--1---1-3--3--3---3-3--3--3---3----------------------|
B|-1--1--1---1-1--1--1---1-3--3--3---3-3--3--3---3----------------------|
G|-2--2--2---2-2--2--2---1----------------------------------------------|
D|-2--2--2---2-3--3--3---3----------------------------------------------|
A|-------------3--3--3---3-2--2--2---2-2--2--2---2----------------------|
E|-------------1--1--1---1-3--3--3---3-3--3--3---3----------------------|

e|--1--1--1---1-3--3--3---3-3--3--3---3---------------------------------|
B|--1--1--1---1-3--3--3---3-3--3--3---3---------------------------------|
G|--2--2--2---1---------------------------------------------------------|
D|--3--3--3---3---------------------------------------------------------|
A|--3--3--3---3-2--2--2---2-2--2--2---2---------------------------------|
E|--1--1--1---1-3--3--3---3-3--3--3---3---------------------------------|

Chorus:

e|-1--1--1---1-------------3--3--3---3-3--3--3---3----------------------|
B|-1--1--1---1-1--1--1---1-3--3--3---3-3--3--3---3----------------------|
G|-2--2--2---2----------------------------------------------------------|
D|-3--3--3---3-2--2--2---2----------------------------------------------|
A|-3--3--3---3-3--3--3---3-2--2--2---2-2--2--2---2----------------------|
E|-1--1--1---1-------------3--3--3---3-3--3--3---3----------------------|

e|-1--1--1---1-------------3--3--3---3-3--3--3---3----------------------|
B|-1--1--1---1-1--1--1---1-3--3--3---3-3--3--3---3----------------------|
G|-2--2--2---2----------------------------------------------------------|
D|-3--3--3---3-2--2--2---2----------------------------------------------|
A|-3--3--3---3-3--3--3---3-2--2--2---2-2--2--2---2----------------------|
E|-1--1--1---1-------------3--3--3---3-3--3--3---3----------------------|

e|-1--1--1---1-------------3--3--3---3-3--3--3---3----------------------|
B|-1--1--1---1-1--1--1---1-3--3--3---3-3--3--3---3----------------------|
G|-2--2--2---2----------------------------------------------------------|
D|-3--3--3---3-2--2--2---2----------------------------------------------|
A|-3--3--3---3-3--3--3---3-2--2--2---2-2--2--2---2----------------------|
E|-1--1--1---1-------------3--3--3---3-3--3--3---3----------------------|

e|--1--1--1---1-3--3--3---3-3--3--3---3---------------------------------|
B|--1--1--1---1-3--3--3---3-3--3--3---3---------------------------------|
G|--2--2--2---1---------------------------------------------------------|
D|--3--3--3---3---------------------------------------------------------|
A|--3--3--3---3-2--2--2---2-2--2--2---2---------------------------------|
E|--1--1--1---1-3--3--3---3-3--3--3---3---------------------------------|

Verse 2:

e|-------------1--1--1---1-3--3--3---3-3--3--3---3----------------------|
B|-1--1--1---1-1--1--1---1-3--3--3---3-3--3--3---3----------------------|
G|-2--2--2---2-2--2--2---1----------------------------------------------|
D|-2--2--2---2-3--3--3---3----------------------------------------------|
A|-------------3--3--3---3-2--2--2---2-2--2--2---2----------------------|
E|-------------1--1--1---1-3--3--3---3-3--3--3---3----------------------|

e|-------------1--1--1---1-3--3--3---3-3--3--3---3----------------------|
B|-1--1--1---1-1--1--1---1-3--3--3---3-3--3--3---3----------------------|
G|-2--2--2---2-2--2--2---1----------------------------------------------|
D|-2--2--2---2-3--3--3---3----------------------------------------------|
A|-------------3--3--3---3-2--2--2---2-2--2--2---2----------------------|
E|-------------1--1--1---1-3--3--3---3-3--3--3---3----------------------|

e|-------------1--1--1---1-3--3--3---3-3--3--3---3----------------------|
B|-1--1--1---1-1--1--1---1-3--3--3---3-3--3--3---3----------------------|
G|-2--2--2---2-2--2--2---1----------------------------------------------|
D|-2--2--2---2-3--3--3---3----------------------------------------------|
A|-------------3--3--3---3-2--2--2---2-2--2--2---2----------------------|
E|-------------1--1--1---1-3--3--3---3-3--3--3---3----------------------|

e|--1--1--1---1-3--3--3---3-3--3--3---3---------------------------------|
B|--1--1--1---1-3--3--3---3-3--3--3---3---------------------------------|
G|--2--2--2---1---------------------------------------------------------|
D|--3--3--3---3---------------------------------------------------------|
A|--3--3--3---3-2--2--2---2-2--2--2---2---------------------------------|
E|--1--1--1---1-3--3--3---3-3--3--3---3---------------------------------|

Chorus:

e|-1--1--1---1-------------3--3--3---3-3--3--3---3----------------------|
B|-1--1--1---1-1--1--1---1-3--3--3---3-3--3--3---3----------------------|
G|-2--2--2---2----------------------------------------------------------|
D|-3--3--3---3-2--2--2---2----------------------------------------------|
A|-3--3--3---3-3--3--3---3-2--2--2---2-2--2--2---2----------------------|
E|-1--1--1---1-------------3--3--3---3-3--3--3---3----------------------|

e|-1--1--1---1-------------3--3--3---3-3--3--3---3----------------------|
B|-1--1--1---1-1--1--1---1-3--3--3---3-3--3--3---3----------------------|
G|-2--2--2---2----------------------------------------------------------|
D|-3--3--3---3-2--2--2---2----------------------------------------------|
A|-3--3--3---3-3--3--3---3-2--2--2---2-2--2--2---2----------------------|
E|-1--1--1---1-------------3--3--3---3-3--3--3---3----------------------|

e|-1--1--1---1-------------3--3--3---3-3--3--3---3----------------------|
B|-1--1--1---1-1--1--1---1-3--3--3---3-3--3--3---3----------------------|
G|-2--2--2---2----------------------------------------------------------|
D|-3--3--3---3-2--2--2---2----------------------------------------------|
A|-3--3--3---3-3--3--3---3-2--2--2---2-2--2--2---2----------------------|
E|-1--1--1---1-------------3--3--3---3-3--3--3---3----------------------|

e|--1--1--1---1-3--3--3---3-3--3--3---3---------------------------------|
B|--1--1--1---1-3--3--3---3-3--3--3---3---------------------------------|
G|--2--2--2---1---------------------------------------------------------|
D|--3--3--3---3---------------------------------------------------------|
A|--3--3--3---3-2--2--2---2-2--2--2---2---------------------------------|
E|--1--1--1---1-3--3--3---3-3--3--3---3---------------------------------|

Bridge:

e|----------------------------------------------------------------------|
B|-15b17------15--13\12---------12h13-----------------------------------|
G|---------------------14~~~-14------14--12-12-12-12-12~----------------|
D|----------------------------------------------------------------------|
A|----------------------------------------------------------------------|
E|----------------------------------------------------------------------|

e|----------------------------------------------------------------------|
B|--------------------------------------5----------5--------------------|
G|-11/12--12-12-12-12-12\7--5h7-7---5h7--------5h7----------------------|
D|----------------------------------------7----------7------------------|
A|----------------------------------------------------------------------|
E|----------------------------------------------------------------------|

e--------------------------15--15---------------------------------------|
B-------8---8/12-13-15b17-(17)(17)-r15--13-15\10~~----------------------|
G-5h7/9---9-------------------------------------------------------------|
D-----------------------------------------------------------------------|
A-----------------------------------------------------------------------|
E-----------------------------------------------------------------------|

Chorus:

e|-1--1--1---1-------------3--3--3---3-3--3--3---3----------------------|
B|-1--1--1---1-1--1--1---1-3--3--3---3-3--3--3---3----------------------|
G|-2--2--2---2----------------------------------------------------------|
D|-3--3--3---3-2--2--2---2----------------------------------------------|
A|-3--3--3---3-3--3--3---3-2--2--2---2-2--2--2---2----------------------|
E|-1--1--1---1-------------3--3--3---3-3--3--3---3----------------------|

e|-1--1--1---1-------------3--3--3---3-3--3--3---3----------------------|
B|-1--1--1---1-1--1--1---1-3--3--3---3-3--3--3---3----------------------|
G|-2--2--2---2----------------------------------------------------------|
D|-3--3--3---3-2--2--2---2----------------------------------------------|
A|-3--3--3---3-3--3--3---3-2--2--2---2-2--2--2---2----------------------|
E|-1--1--1---1-------------3--3--3---3-3--3--3---3----------------------|

e|-1--1--1---1-------------3--3--3---3-3--3--3---3----------------------|
B|-1--1--1---1-1--1--1---1-3--3--3---3-3--3--3---3----------------------|
G|-2--2--2---2----------------------------------------------------------|
D|-3--3--3---3-2--2--2---2----------------------------------------------|
A|-3--3--3---3-3--3--3---3-2--2--2---2-2--2--2---2----------------------|
E|-1--1--1---1-------------3--3--3---3-3--3--3---3----------------------|

e|--1--1--1---1-3--3--3---3-3--3--3---3---------------------------------|
B|--1--1--1---1-3--3--3---3-3--3--3---3---------------------------------|
G|--2--2--2---1---------------------------------------------------------|
D|--3--3--3---3---------------------------------------------------------|
A|--3--3--3---3-2--2--2---2-2--2--2---2---------------------------------|
E|--1--1--1---1-3--3--3---3-3--3--3---3---------------------------------|

e|--1--1--1---1-3--3--3---3-3--3--3---3---------------------------------|
B|--1--1--1---1-3--3--3---3-3--3--3---3---------------------------------|
G|--2--2--2---1---------------------------------------------------------|
D|--3--3--3---3---------------------------------------------------------|
A|--3--3--3---3-2--2--2---2-2--2--2---2---------------------------------|
E|--1--1--1---1-3--3--3---3-3--3--3---3---------------------------------|

Outro:

e|---------1-------3-----------------------------------|
B|-1-------1-------3-----------------------------------|
G|-2-------2-------------------------------------------|
D|-2-------3-------------------------------------------|
A|---------3-------2-----------------------------------|
E|---------1-------3-----------------------------------|
            
Submit corrections



        Til Summer Comes Around lessons Hard to play? Try these video lessons and learn fast Til Summer Comes Around lessons
        
↑ Back to top | Tablatures and chords for acoustic guitar and electric guitar, ukulele, drums are parodies/interpretations of the original songs. You may use it for private study, scholarship, research or language learning purposes only