» » »

Keith Urban - Georgia Woods Tabs

Artists:  A B C D E F G H I J K L M N O P Q R S T U V W X Y Z # 

Georgia Woods Tabs

(ver. 1) Click to play this song!
Keith Urban
 Rating:
4/5 (4 votes)


 Georgia Woods lessons Tabs too difficult? Try these video lessons and learn fast
 
                Tune down a halfstep.
r= let ring


Eb---------------------------------
Bb---------------------------------
Gb------4---4-4---4----------------
Db----4---4-----4---4--------------
Ab-2r-----------------2------------
Eb---------------------------------

Eb---------------------------------
Bb---------------------------------
Gb------4---4-4---4----------------
Db----4---4-----4---4--------------
Ab---------------------------------
Eb-0r-----------------0------------

Eb-------------------------------------------
Bb-------------------------------------------
Gb--------4--------------4---------4---4-----
Db------4---4----------4---------4---4---4---
Ab---------------------------0h2-----------2-
Eb--4bh---------pbr4-0-----------------------
            
Submit corrections



        Georgia Woods lessons Hard to play? Try these video lessons and learn fast Georgia Woods lessons
        
↑ Back to top | Tablatures and chords for acoustic guitar and electric guitar, ukulele, drums are parodies/interpretations of the original songs. You may use it for private study, scholarship, research or language learning purposes only